  0
SECTION
  2
HEADER
  9
$ACADVER
  1
AC1009
  9
$DWGCODEPAGE
  3
dos932
  9
$INSBASE
 10
0.0
 20
0.0
 30
0.0
  9
$EXTMIN
 10
207.543317
 20
73.534108000000003
 30
0.0
  9
$EXTMAX
 10
1077.5433189999999
 20
1871.3341069999999
 30
0.0
  9
$LIMMIN
 10
207.543317
 20
73.534108000000003
  9
$LIMMAX
 10
1077.5433189999999
 20
1871.3341069999999
  9
$ORTHOMODE
 70
               0
  9
$REGENMODE
 70
               1
  9
$FILLMODE
 70
               1
  9
$QTEXTMODE
 70
               0
  9
$MIRRTEXT
 70
               1
  9
$DRAGMODE
 70
               2
  9
$LTSCALE
 40
1.0
  9
$OSMODE
 70
               0
  9
$ATTMODE
 70
               1
  9
$TEXTSIZE
 40
4.1655998229980469
  9
$TRACEWID
 40
0.05
  9
$TEXTSTYLE
  7
MX_NOTE_STANDARD
  9
$CLAYER
  8
0
  9
$CELTYPE
  6
CONTINUOUS
  9
$CECOLOR
 62
             256
  9
$DIMSCALE
 40
1.0
  9
$DIMASZ
 40
2.5
  9
$DIMEXO
 40
0.5
  9
$DIMDLI
 40
3.75
  9
$DIMRND
 40
0.0
  9
$DIMDLE
 40
0.0
  9
$DIMEXE
 40
1.0
  9
$DIMTP
 40
0.0
  9
$DIMTM
 40
0.0
  9
$DIMTXT
 40
2.5
  9
$DIMCEN
 40
2.5
  9
$DIMTSZ
 40
0.0
  9
$DIMTOL
 70
               0
  9
$DIMLIM
 70
               0
  9
$DIMTIH
 70
               0
  9
$DIMTOH
 70
               0
  9
$DIMSE1
 70
               0
  9
$DIMSE2
 70
               0
  9
$DIMTAD
 70
               1
  9
$DIMZIN
 70
               8
  9
$DIMBLK
  1

  9
$DIMASO
 70
               1
  9
$DIMSHO
 70
               1
  9
$DIMPOST
  1

  9
$DIMAPOST
  1

  9
$DIMALT
 70
               0
  9
$DIMALTD
 70
               4
  9
$DIMALTF
 40
0.03937007874016
  9
$DIMLFAC
 40
1.0
  9
$DIMTOFL
 70
               1
  9
$DIMTVP
 40
0.0
  9
$DIMTIX
 70
               0
  9
$DIMSOXD
 70
               0
  9
$DIMSAH
 70
               1
  9
$DIMBLK1
  1
_OPEN30
  9
$DIMBLK2
  1
_OPEN30
  9
$DIMSTYLE
  2
MXDIMSTYLE
  9
$DIMCLRD
 70
               0
  9
$DIMCLRE
 70
               0
  9
$DIMCLRT
 70
               0
  9
$DIMTFAC
 40
1.0
  9
$DIMGAP
 40
1.0
  9
$LUNITS
 70
               2
  9
$LUPREC
 70
               4
  9
$AXISMODE
 70
               0
  9
$AXISUNIT
 10
0.0
 20
0.0
  9
$SKETCHINC
 40
0.1
  9
$FILLETRAD
 40
0.0
  9
$AUNITS
 70
               0
  9
$AUPREC
 70
               0
  9
$MENU
  1
acad
  9
$ELEVATION
 40
0.0
  9
$PELEVATION
 40
0.0
  9
$THICKNESS
 40
0.0
  9
$LIMCHECK
 70
               0
  9
$BLIPMODE
 70
               1
  9
$CHAMFERA
 40
0.0
  9
$CHAMFERB
 40
0.0
  9
$SKPOLY
 70
               0
  9
$TDCREATE
 40
2455744.546747685
  9
$TDUPDATE
 40
2455744.546747685
  9
$TDINDWG
 40
0.0000000000
  9
$TDUSRTIMER
 40
0.0000000000
  9
$USRTIMER
 70
               1
  9
$ANGBASE
 50
0.0
  9
$ANGDIR
 70
               0
  9
$PDMODE
 70
               0
  9
$PDSIZE
 40
0.0
  9
$PLINEWID
 40
0.0
  9
$COORDS
 70
               1
  9
$SPLFRAME
 70
               0
  9
$SPLINETYPE
 70
               6
  9
$SPLINESEGS
 70
               8
  9
$ATTDIA
 70
               0
  9
$ATTREQ
 70
               1
  9
$HANDLING
 70
               1
  9
$HANDSEED
  5
2E5
  9
$SURFTAB1
 70
               6
  9
$SURFTAB2
 70
               6
  9
$SURFTYPE
 70
               6
  9
$SURFU
 70
               6
  9
$SURFV
 70
               6
  9
$UCSNAME
  2

  9
$UCSORG
 10
0.0
 20
0.0
 30
0.0
  9
$UCSXDIR
 10
1.0
 20
0.0
 30
0.0
  9
$UCSYDIR
 10
0.0
 20
1.0
 30
0.0
  9
$PUCSNAME
  2

  9
$PUCSORG
 10
0.0
 20
0.0
 30
0.0
  9
$PUCSXDIR
 10
1.0
 20
0.0
 30
0.0
  9
$PUCSYDIR
 10
0.0
 20
1.0
 30
0.0
  9
$USERI1
 70
               0
  9
$USERI2
 70
               0
  9
$USERI3
 70
               0
  9
$USERI4
 70
               0
  9
$USERI5
 70
               0
  9
$USERR1
 40
0.0
  9
$USERR2
 40
0.0
  9
$USERR3
 40
0.0
  9
$USERR4
 40
0.0
  9
$USERR5
 40
0.0
  9
$WORLDVIEW
 70
               1
  9
$SHADEDGE
 70
               3
  9
$SHADEDIF
 70
              70
  9
$TILEMODE
 70
               1
  9
$MAXACTVP
 70
              16
  9
$PINSBASE
 10
0.0
 20
0.0
 30
0.0
  9
$PLIMCHECK
 70
               0
  9
$PEXTMIN
 10
1.0000000000000000E+20
 20
1.0000000000000000E+20
 30
1.0000000000000000E+20
  9
$PEXTMAX
 10
-1.0000000000000000E+20
 20
-1.0000000000000000E+20
 30
-1.0000000000000000E+20
  9
$PLIMMIN
 10
0.0
 20
0.0
  9
$PLIMMAX
 10
12.0
 20
9.0
  9
$UNITMODE
 70
               0
  9
$VISRETAIN
 70
               0
  9
$PLINEGEN
 70
               1
  9
$PSLTSCALE
 70
               0
  9
$TREEDEPTH
 70
            3020
  0
ENDSEC
  0
SECTION
  2
TABLES
  0
TABLE
  2
VPORT
 70
               1
  0
VPORT
  2
*ACTIVE
 70
               0
 10
0.0
 20
0.0
 11
1.0
 21
1.0
 12
642.543318
 22
972.43410749999998
 13
0.0
 23
0.0
 14
1.0
 24
1.0
 15
0.0
 25
0.0
 16
0.0
 26
0.0
 36
1.0
 17
0.0
 27
0.0
 37
0.0
 40
1815.7779989899998
 41
1.7320508075688772
 42
50.0
 43
0.0
 44
0.0
 50
0.0
 51
0.0
 71
               0
 72
             100
 73
               1
 74
               1
 75
               0
 76
               0
 77
               0
 78
               0
  0
ENDTAB
  0
TABLE
  2
LTYPE
 70
               1
  0
LTYPE
  2
CONTINUOUS
 70
              64
  3
Solid line
 72
              65
 73
               0
 40
0.0
  0
ENDTAB
  0
TABLE
  2
LAYER
 70
               3
  0
LAYER
  2
0
 70
               0
 62
               7
  6
CONTINUOUS
  0
LAYER
  2
DEFPOINTS
 70
               0
 62
               7
  6
CONTINUOUS
  0
LAYER
  2
LY_3
 70
               0
 62
               7
  6
CONTINUOUS
  0
ENDTAB
  0
TABLE
  2
STYLE
 70
               1
  0
STYLE
  2
MX_NOTE_STANDARD
 70
               0
 40
0.0
 41
1.0
 50
0.0
 71
               0
 42
4.1655998229980469
  3
txt.shx
  4
extfont.shx
  0
ENDTAB
  0
TABLE
  2
VIEW
 70
               0
  0
ENDTAB
  0
TABLE
  2
UCS
 70
               0
  0
ENDTAB
  0
TABLE
  2
APPID
 70
               1
  0
APPID
  2
ACAD
 70
               0
  0
ENDTAB
  0
TABLE
  2
DIMSTYLE
 70
               1
  0
DIMSTYLE
  2
MXDIMSTYLE
 70
               0
  3

  4

  5

  6
_OPEN30
  7
_OPEN30
 40
1.0
 41
2.5
 42
0.5
 43
3.75
 44
1.0
 45
0.0
 46
0.0
 47
0.0
 48
0.0
 71
               0
 72
               0
 73
               0
 74
               0
 75
               0
 76
               0
 77
               1
 78
               8
140
2.5
141
2.5
142
0.0
143
0.03937007874016
144
1.0
145
0.0
146
1.0
147
1.0
170
               0
171
               4
172
               1
173
               1
174
               0
175
               0
176
               0
177
               0
178
               0
  0
ENDTAB
  0
ENDSEC
  0
SECTION
  2
BLOCKS
  0
BLOCK
  8
0
  5
2E
  2
MS_1
 70
               0
 10
0.0
 20
0.0
 30
0.0
  3
MS_1
  0
LINE
  8
0
  6
CONTINUOUS
 62
               3
  5
2F
 10
-9.7650899999999989
 20
-152.19999999999999
 30
0.0
 11
9.7650900000000025
 21
-152.19999999999999
 31
0.0
  0
LINE
  8
0
  6
CONTINUOUS
 62
               3
  5
30
 10
-3.5999999999999983
 20
-152.19999999999999
 30
0.0
 11
-3.5423979999999982
 21
-155.5
 31
0.0
  0
LINE
  8
0
  6
CONTINUOUS
 62
               3
  5
31
 10
-3.6807319999999981
 20
-150.19999999999999
 30
0.0
 11
-3.6565129999999981
 21
-152.19999999999999
 31
0.0
  0
LINE
  8
0
  6
CONTINUOUS
 62
               3
  5
32
 10
-2.0476499999999982
 20
-150.19999999999999
 30
0.0
 11
-2.028636999999998
 21
-152.19999999999999
 31
0.0
  0
LINE
  8
0
  6
CONTINUOUS
 62
               3
  5
33
 10
-9.7999999999999989
 20
-150.19999999999999
 30
0.0
 11
-9.7650899999999989
 21
-152.19999999999999
 31
0.0
  0
LINE
  8
0
  6
CONTINUOUS
 62
               3
  5
34
 10
-9.7060609999999983
 20
-150.19999999999999
 30
0.0
 11
-9.6698229999999974
 21
-152.19999999999999
 31
0.0
  0
LINE
  8
0
  6
CONTINUOUS
 62
               3
  5
35
 10
-9.3235449999999975
 20
-150.19999999999999
 30
0.0
 11
-9.2866339999999976
 21
-152.19999999999999
 31
0.0
  0
LINE
  8
0
  6
CONTINUOUS
 62
               3
  5
36
 10
-8.6577369999999974
 20
-150.19999999999999
 30
0.0
 11
-8.6212749999999989
 21
-152.19999999999999
 31
0.0
  0
LINE
  8
0
  6
CONTINUOUS
 62
               3
  5
37
 10
-7.7288679999999985
 20
-150.19999999999999
 30
0.0
 11
-7.6939639999999985
 21
-152.19999999999999
 31
0.0
  0
LINE
  8
0
  6
CONTINUOUS
 62
               3
  5
38
 10
-6.5651619999999982
 20
-150.19999999999999
 30
0.0
 11
-6.532874999999998
 21
-152.19999999999999
 31
0.0
  0
LINE
  8
0
  6
CONTINUOUS
 62
               3
  5
39
 10
-5.2019769999999985
 20
-150.19999999999999
 30
0.0
 11
-5.1732869999999984
 21
-152.19999999999999
 31
0.0
  0
LINE
  8
0
  6
CONTINUOUS
 62
               3
  5
3A
 10
-5.7883199999999979
 20
-154.90000000000001
 30
0.0
 11
-7.694061999999998
 21
-154.90000000000001
 31
0.0
  0
LINE
  8
0
  6
CONTINUOUS
 62
               3
  5
3B
 10
-5.7883199999999979
 20
-154.90000000000001
 30
0.0
 11
-5.7411909999999979
 21
-152.19999999999999
 31
0.0
  0
LINE
  8
0
  6
CONTINUOUS
 62
               3
  5
3C
 10
-7.694061999999998
 20
-154.90000000000001
 30
0.0
 11
-7.7411909999999979
 21
-152.19999999999999
 31
0.0
  0
LINE
  8
0
  6
CONTINUOUS
 62
               3
  5
3D
 10
3.6000000000000019
 20
-152.19999999999999
 30
0.0
 11
3.5423980000000017
 21
-155.5
 31
0.0
  0
LINE
  8
0
  6
CONTINUOUS
 62
               3
  5
3E
 10
7.7288680000000021
 20
-150.19999999999999
 30
0.0
 11
7.693964000000002
 21
-152.19999999999999
 31
0.0
  0
LINE
  8
0
  6
CONTINUOUS
 62
               3
  5
3F
 10
6.5651620000000017
 20
-150.19999999999999
 30
0.0
 11
6.5328750000000015
 21
-152.19999999999999
 31
0.0
  0
LINE
  8
0
  6
CONTINUOUS
 62
               3
  5
40
 10
5.2019770000000021
 20
-150.19999999999999
 30
0.0
 11
5.173287000000002
 21
-152.19999999999999
 31
0.0
  0
LINE
  8
0
  6
CONTINUOUS
 62
               3
  5
41
 10
3.6807320000000017
 20
-150.19999999999999
 30
0.0
 11
3.6565130000000017
 21
-152.19999999999999
 31
0.0
  0
LINE
  8
0
  6
CONTINUOUS
 62
               3
  5
42
 10
2.0476500000000017
 20
-150.19999999999999
 30
0.0
 11
2.0286370000000016
 21
-152.19999999999999
 31
0.0
  0
LINE
  8
0
  6
CONTINUOUS
 62
               3
  5
43
 10
8.6577370000000009
 20
-150.19999999999999
 30
0.0
 11
8.6212750000000025
 21
-152.19999999999999
 31
0.0
  0
LINE
  8
0
  6
CONTINUOUS
 62
               3
  5
44
 10
9.3235450000000011
 20
-150.19999999999999
 30
0.0
 11
9.2866340000000012
 21
-152.19999999999999
 31
0.0
  0
LINE
  8
0
  6
CONTINUOUS
 62
               3
  5
45
 10
9.7060610000000018
 20
-150.19999999999999
 30
0.0
 11
9.6698230000000009
 21
-152.19999999999999
 31
0.0
  0
LINE
  8
0
  6
CONTINUOUS
 62
               3
  5
46
 10
5.7883200000000015
 20
-154.90000000000001
 30
0.0
 11
7.6940620000000015
 21
-154.90000000000001
 31
0.0
  0
LINE
  8
0
  6
CONTINUOUS
 62
               3
  5
47
 10
5.7883200000000015
 20
-154.90000000000001
 30
0.0
 11
5.7411910000000015
 21
-152.19999999999999
 31
0.0
  0
LINE
  8
0
  6
CONTINUOUS
 62
               3
  5
48
 10
7.6940620000000015
 20
-154.90000000000001
 30
0.0
 11
7.7411910000000015
 21
-152.19999999999999
 31
0.0
  0
LINE
  8
0
  6
CONTINUOUS
 62
               3
  5
49
 10
-9.7999999999999989
 20
-150.19999999999999
 30
0.0
 11
9.8000000000000025
 21
-150.19999999999999
 31
0.0
  0
LINE
  8
0
  6
CONTINUOUS
 62
               3
  5
4A
 10
0.1606930000000018
 20
-150.19999999999999
 30
0.0
 11
0.1474630000000018
 21
-152.19999999999999
 31
0.0
  0
LINE
  8
0
  6
CONTINUOUS
 62
               3
  5
4B
 10
-0.1606929999999982
 20
-150.19999999999999
 30
0.0
 11
-0.1474629999999982
 21
-152.19999999999999
 31
0.0
  0
LINE
  8
0
  6
CONTINUOUS
 62
               3
  5
4C
 10
-3.5423979999999982
 20
-155.5
 30
0.0
 11
3.5423980000000017
 21
-155.5
 31
0.0
  0
LINE
  8
0
  6
CONTINUOUS
 62
               3
  5
4D
 10
9.8000000000000025
 20
-150.19999999999999
 30
0.0
 11
9.7650900000000025
 21
-152.19999999999999
 31
0.0
  0
LINE
  8
0
  6
CONTINUOUS
 62
               3
  5
4E
 10
1.0000000000000018
 20
-155.5
 30
0.0
 11
1.0000000000000018
 21
-156.013845
 31
0.0
  0
LINE
  8
0
  6
CONTINUOUS
 62
               3
  5
4F
 10
-0.9999999999999982
 20
-155.5
 30
0.0
 11
-0.9999999999999982
 21
-156.013845
 31
0.0
  0
LINE
  8
0
  6
CONTINUOUS
 62
               3
  5
50
 10
35.0
 20
-166.0
 30
0.0
 11
-35.0
 21
-166.0
 31
0.0
  0
LINE
  8
0
  6
CONTINUOUS
 62
               3
  5
51
 10
-35.0
 20
-168.0
 30
0.0
 11
35.0
 21
-168.0
 31
0.0
  0
LINE
  8
0
  6
CONTINUOUS
 62
               3
  5
52
 10
13.279056000000001
 20
-170.15669299999999
 30
0.0
 11
13.896867
 21
-169.80000000000001
 31
0.0
  0
LINE
  8
0
  6
CONTINUOUS
 62
               3
  5
53
 10
-20.744150000000001
 20
-173.0
 30
0.0
 11
-13.896867
 21
-173.0
 31
0.0
  0
LINE
  8
0
  6
CONTINUOUS
 62
               3
  5
54
 10
-21.36196
 20
-170.15669299999999
 30
0.0
 11
-21.36196
 21
-172.64330699999999
 31
0.0
  0
LINE
  8
0
  6
CONTINUOUS
 62
              80
  5
55
 10
-19.341234
 20
-170.20414500000001
 30
0.0
 11
-19.341234
 21
-172.595855
 31
0.0
  0
LINE
  8
0
  6
CONTINUOUS
 62
               3
  5
56
 10
-21.36196
 20
-170.15669299999999
 30
0.0
 11
-20.744150000000001
 21
-169.80000000000001
 31
0.0
  0
LINE
  8
0
  6
CONTINUOUS
 62
               3
  5
57
 10
-21.36196
 20
-172.64330699999999
 30
0.0
 11
-20.744150000000001
 21
-173.0
 31
0.0
  0
LINE
  8
0
  6
CONTINUOUS
 62
               3
  5
58
 10
-13.279056000000001
 20
-170.15669299999999
 30
0.0
 11
-13.279056000000001
 21
-172.64330699999999
 31
0.0
  0
LINE
  8
0
  6
CONTINUOUS
 62
              80
  5
59
 10
-15.299782
 20
-170.20414500000001
 30
0.0
 11
-15.299782
 21
-172.595855
 31
0.0
  0
LINE
  8
0
  6
CONTINUOUS
 62
               3
  5
5A
 10
-13.279056000000001
 20
-170.15669299999999
 30
0.0
 11
-13.896867
 21
-169.80000000000001
 31
0.0
  0
LINE
  8
0
  6
CONTINUOUS
 62
               3
  5
5B
 10
-13.279056000000001
 20
-172.64330699999999
 30
0.0
 11
-13.896867
 21
-173.0
 31
0.0
  0
LINE
  8
0
  6
CONTINUOUS
 62
               3
  5
5C
 10
-22.320508
 20
-168.80000000000001
 30
0.0
 11
-12.320508
 21
-168.80000000000001
 31
0.0
  0
LINE
  8
0
  6
CONTINUOUS
 62
               3
  5
5D
 10
-12.320508
 20
-168.0
 30
0.0
 11
-12.320508
 21
-168.80000000000001
 31
0.0
  0
LINE
  8
0
  6
CONTINUOUS
 62
               3
  5
5E
 10
-22.320508
 20
-168.0
 30
0.0
 11
-22.320508
 21
-168.80000000000001
 31
0.0
  0
LINE
  8
0
  6
CONTINUOUS
 62
               3
  5
5F
 10
-21.120508000000001
 20
-169.80000000000001
 30
0.0
 11
-13.520508
 21
-169.80000000000001
 31
0.0
  0
LINE
  8
0
  6
CONTINUOUS
 62
              80
  5
60
 10
-17.820508
 20
-169.80000000000001
 30
0.0
 11
-16.820508
 21
-168.80000000000001
 31
0.0
  0
LINE
  8
0
  6
CONTINUOUS
 62
               3
  5
61
 10
-13.520508
 20
-168.80000000000001
 30
0.0
 11
-13.520508
 21
-169.80000000000001
 31
0.0
  0
LINE
  8
0
  6
CONTINUOUS
 62
               3
  5
62
 10
-21.120508000000001
 20
-168.80000000000001
 30
0.0
 11
-21.120508000000001
 21
-169.80000000000001
 31
0.0
  0
LINE
  8
0
  6
CONTINUOUS
 62
               3
  5
63
 10
-18.820508
 20
-179.19999999999999
 30
0.0
 11
-15.820508
 21
-179.19999999999999
 31
0.0
  0
LINE
  8
0
  6
CONTINUOUS
 62
               3
  5
64
 10
-15.320508
 20
-173.0
 30
0.0
 11
-15.320508
 21
-178.69999999999999
 31
0.0
  0
LINE
  8
0
  6
CONTINUOUS
 62
               3
  5
65
 10
-19.320508
 20
-173.0
 30
0.0
 11
-19.320508
 21
-178.69999999999999
 31
0.0
  0
LINE
  8
0
  6
CONTINUOUS
 62
              80
  5
66
 10
-19.320508
 20
-178.69999999999999
 30
0.0
 11
-15.320508
 21
-178.69999999999999
 31
0.0
  0
LINE
  8
0
  6
CONTINUOUS
 62
              80
  5
67
 10
-18.820508
 20
-173.0
 30
0.0
 11
-18.820508
 21
-179.19999999999999
 31
0.0
  0
LINE
  8
0
  6
CONTINUOUS
 62
              80
  5
68
 10
-15.820508
 20
-173.0
 30
0.0
 11
-15.820508
 21
-179.19999999999999
 31
0.0
  0
LINE
  8
0
  6
CONTINUOUS
 62
               3
  5
69
 10
-19.320508
 20
-178.69999999999999
 30
0.0
 11
-18.820508
 21
-179.19999999999999
 31
0.0
  0
LINE
  8
0
  6
CONTINUOUS
 62
               3
  5
6A
 10
-15.320508
 20
-178.69999999999999
 30
0.0
 11
-15.820508
 21
-179.19999999999999
 31
0.0
  0
LINE
  8
0
  6
CONTINUOUS
 62
              80
  5
6B
 10
15.299782
 20
-170.20414500000001
 30
0.0
 11
15.299782
 21
-172.595855
 31
0.0
  0
LINE
  8
0
  6
CONTINUOUS
 62
               3
  5
6C
 10
13.279056000000001
 20
-170.15669299999999
 30
0.0
 11
13.279056000000001
 21
-172.64330699999999
 31
0.0
  0
LINE
  8
0
  6
CONTINUOUS
 62
               3
  5
6D
 10
21.36196
 20
-172.64330699999999
 30
0.0
 11
20.744150000000001
 21
-173.0
 31
0.0
  0
LINE
  8
0
  6
CONTINUOUS
 62
               3
  5
6E
 10
21.36196
 20
-170.15669299999999
 30
0.0
 11
20.744150000000001
 21
-169.80000000000001
 31
0.0
  0
LINE
  8
0
  6
CONTINUOUS
 62
              80
  5
6F
 10
19.341234
 20
-170.20414500000001
 30
0.0
 11
19.341234
 21
-172.595855
 31
0.0
  0
LINE
  8
0
  6
CONTINUOUS
 62
               3
  5
70
 10
21.36196
 20
-170.15669299999999
 30
0.0
 11
21.36196
 21
-172.64330699999999
 31
0.0
  0
LINE
  8
0
  6
CONTINUOUS
 62
               3
  5
71
 10
13.279056000000001
 20
-172.64330699999999
 30
0.0
 11
13.896867
 21
-173.0
 31
0.0
  0
LINE
  8
0
  6
CONTINUOUS
 62
               3
  5
72
 10
22.320508
 20
-168.80000000000001
 30
0.0
 11
12.320508
 21
-168.80000000000001
 31
0.0
  0
LINE
  8
0
  6
CONTINUOUS
 62
               3
  5
73
 10
12.320508
 20
-168.0
 30
0.0
 11
12.320508
 21
-168.80000000000001
 31
0.0
  0
LINE
  8
0
  6
CONTINUOUS
 62
               3
  5
74
 10
22.320508
 20
-168.0
 30
0.0
 11
22.320508
 21
-168.80000000000001
 31
0.0
  0
LINE
  8
0
  6
CONTINUOUS
 62
               3
  5
75
 10
21.120508000000001
 20
-169.80000000000001
 30
0.0
 11
13.520508
 21
-169.80000000000001
 31
0.0
  0
LINE
  8
0
  6
CONTINUOUS
 62
              80
  5
76
 10
17.820508
 20
-168.80000000000001
 30
0.0
 11
16.820508
 21
-169.80000000000001
 31
0.0
  0
LINE
  8
0
  6
CONTINUOUS
 62
               3
  5
77
 10
13.520508
 20
-168.80000000000001
 30
0.0
 11
13.520508
 21
-169.80000000000001
 31
0.0
  0
LINE
  8
0
  6
CONTINUOUS
 62
               3
  5
78
 10
21.120508000000001
 20
-168.80000000000001
 30
0.0
 11
21.120508000000001
 21
-169.80000000000001
 31
0.0
  0
LINE
  8
0
  6
CONTINUOUS
 62
               3
  5
79
 10
18.820508
 20
-179.19999999999999
 30
0.0
 11
15.820508
 21
-179.19999999999999
 31
0.0
  0
LINE
  8
0
  6
CONTINUOUS
 62
               3
  5
7A
 10
15.320508
 20
-173.0
 30
0.0
 11
15.320508
 21
-178.69999999999999
 31
0.0
  0
LINE
  8
0
  6
CONTINUOUS
 62
               3
  5
7B
 10
19.320508
 20
-173.0
 30
0.0
 11
19.320508
 21
-178.69999999999999
 31
0.0
  0
LINE
  8
0
  6
CONTINUOUS
 62
              80
  5
7C
 10
19.320508
 20
-178.69999999999999
 30
0.0
 11
15.320508
 21
-178.69999999999999
 31
0.0
  0
LINE
  8
0
  6
CONTINUOUS
 62
              80
  5
7D
 10
18.820508
 20
-173.0
 30
0.0
 11
18.820508
 21
-179.19999999999999
 31
0.0
  0
LINE
  8
0
  6
CONTINUOUS
 62
              80
  5
7E
 10
15.820508
 20
-173.0
 30
0.0
 11
15.820508
 21
-179.19999999999999
 31
0.0
  0
LINE
  8
0
  6
CONTINUOUS
 62
               3
  5
7F
 10
19.320508
 20
-178.69999999999999
 30
0.0
 11
18.820508
 21
-179.19999999999999
 31
0.0
  0
LINE
  8
0
  6
CONTINUOUS
 62
               3
  5
80
 10
15.320508
 20
-178.69999999999999
 30
0.0
 11
15.820508
 21
-179.19999999999999
 31
0.0
  0
LINE
  8
0
  6
CONTINUOUS
 62
               3
  5
81
 10
20.744150000000001
 20
-173.0
 30
0.0
 11
13.896867
 21
-173.0
 31
0.0
  0
ARC
  8
0
  6
CONTINUOUS
 62
              80
  5
82
 10
-20.351597000000002
 20
-171.26502600000001
 30
0.0
 40
1.4650259999999999
 50
46.397181000000003
 51
119.99999999999999
  0
ARC
  8
0
  6
CONTINUOUS
 62
              80
  5
83
 10
-20.351597000000002
 20
-171.53497300000001
 30
0.0
 40
1.4650259999999999
 50
239.99999999999997
 51
313.60281900000001
  0
ARC
  8
0
  6
CONTINUOUS
 62
              80
  5
84
 10
-14.289419000000001
 20
-171.26502600000001
 30
0.0
 40
1.4650259999999999
 50
59.999999999999993
 51
133.60281900000001
  0
ARC
  8
0
  6
CONTINUOUS
 62
              80
  5
85
 10
-14.289419000000001
 20
-171.53497300000001
 30
0.0
 40
1.4650259999999999
 50
226.39718099999999
 51
300.0
  0
ARC
  8
0
  6
CONTINUOUS
 62
              80
  5
86
 10
-17.320508
 20
-175.053887
 30
0.0
 40
5.2538869999999998
 50
67.380134999999996
 51
112.619865
  0
ARC
  8
0
  6
CONTINUOUS
 62
              80
  5
87
 10
-17.320508
 20
-167.74611200000001
 30
0.0
 40
5.2538869999999998
 50
247.38013499999997
 51
292.619865
  0
ARC
  8
0
  6
CONTINUOUS
 62
              80
  5
88
 10
20.351597000000002
 20
-171.26502600000001
 30
0.0
 40
1.4650259999999999
 50
59.999999999999993
 51
133.60281900000001
  0
ARC
  8
0
  6
CONTINUOUS
 62
              80
  5
89
 10
20.351597000000002
 20
-171.53497300000001
 30
0.0
 40
1.4650259999999999
 50
226.39718099999999
 51
300.0
  0
ARC
  8
0
  6
CONTINUOUS
 62
              80
  5
8A
 10
14.289419000000001
 20
-171.26502600000001
 30
0.0
 40
1.4650259999999999
 50
46.397181000000003
 51
119.99999999999999
  0
ARC
  8
0
  6
CONTINUOUS
 62
              80
  5
8B
 10
14.289419000000001
 20
-171.53497300000001
 30
0.0
 40
1.4650259999999999
 50
239.99999999999997
 51
313.60281900000001
  0
ARC
  8
0
  6
CONTINUOUS
 62
              80
  5
8C
 10
17.320508
 20
-175.053887
 30
0.0
 40
5.2538869999999998
 50
67.380134999999996
 51
112.619865
  0
ARC
  8
0
  6
CONTINUOUS
 62
              80
  5
8D
 10
17.320508
 20
-167.74611200000001
 30
0.0
 40
5.2538869999999998
 50
247.38013499999997
 51
292.619865
  0
LINE
  8
0
  6
CONTINUOUS
 62
               3
  5
8E
 10
-32.0
 20
-156.0
 30
0.0
 11
32.0
 21
-156.0
 31
0.0
  0
LINE
  8
0
  6
CONTINUOUS
 62
               3
  5
8F
 10
-32.0
 20
-150.0
 30
0.0
 11
32.0
 21
-150.0
 31
0.0
  0
LINE
  8
0
  6
CONTINUOUS
 62
               3
  5
90
 10
-33.5
 20
-146.0
 30
0.0
 11
33.5
 21
-146.0
 31
0.0
  0
LINE
  8
0
  6
CONTINUOUS
 62
               3
  5
91
 10
-29.5
 20
-141.0
 30
0.0
 11
29.5
 21
-141.0
 31
0.0
  0
LINE
  8
0
  6
CONTINUOUS
 62
               3
  5
92
 10
30.0
 20
-0.5
 30
0.0
 11
30.0
 21
-140.5
 31
0.0
  0
LINE
  8
0
  6
CONTINUOUS
 62
               3
  5
93
 10
29.999998999999999
 20
-140.5
 30
0.0
 11
29.5
 21
-141.0
 31
0.0
  0
LINE
  8
0
  6
CONTINUOUS
 62
               3
  5
94
 10
35.0
 20
-166.0
 30
0.0
 11
35.0
 21
-168.0
 31
0.0
  0
LINE
  8
0
  6
CONTINUOUS
 62
               3
  5
95
 10
33.5
 20
-165.5
 30
0.0
 11
33.5
 21
-157.5
 31
0.0
  0
LINE
  8
0
  6
CONTINUOUS
 62
               3
  5
96
 10
32.0
 20
-156.0
 30
0.0
 11
32.0
 21
-150.0
 31
0.0
  0
ARC
  8
0
  6
CONTINUOUS
 62
               3
  5
97
 10
32.0
 20
-148.5
 30
0.0
 40
1.5
 50
270.0
 51
0.0
  0
LINE
  8
0
  6
CONTINUOUS
 62
               3
  5
98
 10
29.5
 20
-141.0
 30
0.0
 11
30.0
 21
-141.5
 31
0.0
  0
ARC
  8
0
  6
CONTINUOUS
 62
               3
  5
99
 10
34.599879000000001
 20
-141.53342799999999
 30
0.0
 40
4.5999999999999996
 50
179.58363299999999
 51
256.16633400000001
  0
ARC
  8
0
  6
CONTINUOUS
 62
               3
  5
9A
 10
32.0
 20
-157.5
 30
0.0
 40
1.5
 50
0.0
 51
90.0
  0
LINE
  8
0
  6
CONTINUOUS
 62
               3
  5
9B
 10
33.5
 20
-148.5
 30
0.0
 11
33.5
 21
-146.0
 31
0.0
  0
LINE
  8
0
  6
CONTINUOUS
 62
               3
  5
9C
 10
33.499999000000003
 20
-165.500001
 30
0.0
 11
33.0
 21
-166.0
 31
0.0
  0
LINE
  8
0
  6
CONTINUOUS
 62
               3
  5
9D
 10
-30.0
 20
-0.5
 30
0.0
 11
-30.0
 21
-140.5
 31
0.0
  0
LINE
  8
0
  6
CONTINUOUS
 62
               3
  5
9E
 10
-29.999998999999999
 20
-140.5
 30
0.0
 11
-29.5
 21
-141.0
 31
0.0
  0
LINE
  8
0
  6
CONTINUOUS
 62
               3
  5
9F
 10
-35.0
 20
-166.0
 30
0.0
 11
-35.0
 21
-168.0
 31
0.0
  0
LINE
  8
0
  6
CONTINUOUS
 62
               3
  5
A0
 10
-33.5
 20
-148.5
 30
0.0
 11
-33.5
 21
-146.0
 31
0.0
  0
ARC
  8
0
  6
CONTINUOUS
 62
               3
  5
A1
 10
-32.0
 20
-157.5
 30
0.0
 40
1.5
 50
90.0
 51
180.0
  0
ARC
  8
0
  6
CONTINUOUS
 62
               3
  5
A2
 10
-34.599879000000001
 20
-141.53342799999999
 30
0.0
 40
4.5999999999999996
 50
283.83366599999999
 51
0.4163669999999851
  0
LINE
  8
0
  6
CONTINUOUS
 62
               3
  5
A3
 10
-29.5
 20
-141.0
 30
0.0
 11
-30.0
 21
-141.5
 31
0.0
  0
ARC
  8
0
  6
CONTINUOUS
 62
               3
  5
A4
 10
-32.0
 20
-148.5
 30
0.0
 40
1.5
 50
180.0
 51
270.0
  0
LINE
  8
0
  6
CONTINUOUS
 62
               3
  5
A5
 10
-32.0
 20
-156.0
 30
0.0
 11
-32.0
 21
-150.0
 31
0.0
  0
LINE
  8
0
  6
CONTINUOUS
 62
               3
  5
A6
 10
-33.5
 20
-165.500001
 30
0.0
 11
-33.5
 21
-157.5
 31
0.0
  0
LINE
  8
0
  6
CONTINUOUS
 62
               3
  5
A7
 10
-33.499999000000003
 20
-165.500001
 30
0.0
 11
-33.0
 21
-166.0
 31
0.0
  0
LINE
  8
0
  6
CONTINUOUS
 62
               3
  5
A8
 10
-29.5
 20
0.0
 30
0.0
 11
-30.0
 21
-0.5
 31
0.0
  0
LINE
  8
0
  6
CONTINUOUS
 62
               3
  5
A9
 10
29.5
 20
0.0
 30
0.0
 11
30.0
 21
-0.5
 31
0.0
  0
LINE
  8
0
  6
CONTINUOUS
 62
               3
  5
AA
 10
10.912388999999999
 20
-156.013845
 30
0.0
 11
10.912388999999999
 21
-150.0
 31
0.0
  0
LINE
  8
0
  6
CONTINUOUS
 62
               3
  5
AB
 10
-10.912388999999999
 20
-156.013845
 30
0.0
 11
-10.912388999999999
 21
-150.0
 31
0.0
  0
LINE
  8
0
  6
CONTINUOUS
 62
               3
  5
AC
 10
-29.5
 20
0.0
 30
0.0
 11
29.5
 21
0.0
 31
0.0
  0
ENDBLK
  8
0
  5
AD
  0
BLOCK
  8
0
  5
AE
  2
MS_2
 70
               0
 10
0.0
 20
0.0
 30
0.0
  3
MS_2
  0
CIRCLE
  8
0
  6
CONTINUOUS
 62
               3
  5
AF
 10
0.0
 20
0.0
 30
0.0
 40
35.0
  0
CIRCLE
  8
0
  6
CONTINUOUS
 62
               3
  5
B0
 10
0.0
 20
0.0
 30
0.0
 40
7.5
  0
CIRCLE
  8
0
  6
CONTINUOUS
 62
               3
  5
B1
 10
17.320508
 20
10.0
 30
0.0
 40
2.0
  0
CIRCLE
  8
0
  6
CONTINUOUS
 62
               3
  5
B2
 10
-17.320508
 20
10.0
 30
0.0
 40
2.0
  0
CIRCLE
  8
0
  6
CONTINUOUS
 62
               3
  5
B3
 10
0.0
 20
-20.0
 30
0.0
 40
2.0
  0
LINE
  8
0
  6
CONTINUOUS
 62
               3
  5
B4
 10
-13.279056000000001
 20
10.0
 30
0.0
 11
-15.299782
 21
6.5
 31
0.0
  0
LINE
  8
0
  6
CONTINUOUS
 62
               3
  5
B5
 10
-15.299782
 20
13.5
 30
0.0
 11
-13.279056000000001
 21
10.0
 31
0.0
  0
CIRCLE
  8
0
  6
CONTINUOUS
 62
               3
  5
B6
 10
-17.320508
 20
10.0
 30
0.0
 40
5.0
  0
LINE
  8
0
  6
CONTINUOUS
 62
               3
  5
B7
 10
-19.341234
 20
13.5
 30
0.0
 11
-15.299782
 21
13.5
 31
0.0
  0
LINE
  8
0
  6
CONTINUOUS
 62
               3
  5
B8
 10
-21.36196
 20
10.0
 30
0.0
 11
-19.341234
 21
6.5
 31
0.0
  0
LINE
  8
0
  6
CONTINUOUS
 62
               3
  5
B9
 10
-19.341234
 20
13.5
 30
0.0
 11
-21.36196
 21
10.0
 31
0.0
  0
LINE
  8
0
  6
CONTINUOUS
 62
               3
  5
BA
 10
-19.341234
 20
6.5
 30
0.0
 11
-15.299782
 21
6.5
 31
0.0
  0
LINE
  8
0
  6
CONTINUOUS
 62
               3
  5
BB
 10
4.0414519999999996
 20
-20.0
 30
0.0
 11
2.0207259999999998
 21
-23.5
 31
0.0
  0
LINE
  8
0
  6
CONTINUOUS
 62
               3
  5
BC
 10
2.0207259999999998
 20
-16.5
 30
0.0
 11
4.0414519999999996
 21
-20.0
 31
0.0
  0
CIRCLE
  8
0
  6
CONTINUOUS
 62
               3
  5
BD
 10
0.0
 20
-20.0
 30
0.0
 40
5.0
  0
LINE
  8
0
  6
CONTINUOUS
 62
               3
  5
BE
 10
-2.0207259999999998
 20
-16.5
 30
0.0
 11
2.0207259999999998
 21
-16.5
 31
0.0
  0
LINE
  8
0
  6
CONTINUOUS
 62
               3
  5
BF
 10
-4.0414519999999996
 20
-20.0
 30
0.0
 11
-2.0207259999999998
 21
-23.5
 31
0.0
  0
LINE
  8
0
  6
CONTINUOUS
 62
               3
  5
C0
 10
-2.0207259999999998
 20
-16.5
 30
0.0
 11
-4.0414519999999996
 21
-20.0
 31
0.0
  0
LINE
  8
0
  6
CONTINUOUS
 62
               3
  5
C1
 10
-2.0207259999999998
 20
-23.5
 30
0.0
 11
2.0207259999999998
 21
-23.5
 31
0.0
  0
LINE
  8
0
  6
CONTINUOUS
 62
               3
  5
C2
 10
21.36196
 20
10.0
 30
0.0
 11
19.341234
 21
6.5
 31
0.0
  0
LINE
  8
0
  6
CONTINUOUS
 62
               3
  5
C3
 10
19.341234
 20
13.5
 30
0.0
 11
21.36196
 21
10.0
 31
0.0
  0
CIRCLE
  8
0
  6
CONTINUOUS
 62
               3
  5
C4
 10
17.320508
 20
10.0
 30
0.0
 40
5.0
  0
LINE
  8
0
  6
CONTINUOUS
 62
               3
  5
C5
 10
15.299782
 20
13.5
 30
0.0
 11
19.341234
 21
13.5
 31
0.0
  0
LINE
  8
0
  6
CONTINUOUS
 62
               3
  5
C6
 10
13.279056000000001
 20
10.0
 30
0.0
 11
15.299782
 21
6.5
 31
0.0
  0
LINE
  8
0
  6
CONTINUOUS
 62
               3
  5
C7
 10
15.299782
 20
13.5
 30
0.0
 11
13.279056000000001
 21
10.0
 31
0.0
  0
LINE
  8
0
  6
CONTINUOUS
 62
               3
  5
C8
 10
15.299782
 20
6.5
 30
0.0
 11
19.341234
 21
6.5
 31
0.0
  0
ENDBLK
  8
0
  5
C9
  0
BLOCK
  8
0
  5
CA
  2
MS_3
 70
               0
 10
0.0
 20
0.0
 30
0.0
  3
MS_3
  0
LINE
  8
0
  6
CONTINUOUS
 62
               3
  5
CB
 10
16.576359
 20
-61.799999999999997
 30
0.0
 11
23.423642000000001
 21
-61.799999999999997
 31
0.0
  0
LINE
  8
0
  6
CONTINUOUS
 62
               3
  5
CC
 10
15.958549
 20
-58.956693000000001
 30
0.0
 11
15.958549
 21
-61.443306999999997
 31
0.0
  0
LINE
  8
0
  6
CONTINUOUS
 62
              80
  5
CD
 10
17.979275000000001
 20
-59.004145000000001
 30
0.0
 11
17.979275000000001
 21
-61.395854999999997
 31
0.0
  0
LINE
  8
0
  6
CONTINUOUS
 62
               3
  5
CE
 10
15.958549
 20
-58.956693000000001
 30
0.0
 11
16.576359
 21
-58.600000000000001
 31
0.0
  0
LINE
  8
0
  6
CONTINUOUS
 62
               3
  5
CF
 10
15.958549
 20
-61.443306999999997
 30
0.0
 11
16.576359
 21
-61.799999999999997
 31
0.0
  0
LINE
  8
0
  6
CONTINUOUS
 62
               3
  5
D0
 10
24.041452
 20
-58.956693000000001
 30
0.0
 11
24.041452
 21
-61.443306999999997
 31
0.0
  0
LINE
  8
0
  6
CONTINUOUS
 62
              80
  5
D1
 10
22.020727000000001
 20
-59.004145000000001
 30
0.0
 11
22.020727000000001
 21
-61.395854999999997
 31
0.0
  0
LINE
  8
0
  6
CONTINUOUS
 62
               3
  5
D2
 10
24.041452
 20
-58.956693000000001
 30
0.0
 11
23.423642000000001
 21
-58.600000000000001
 31
0.0
  0
LINE
  8
0
  6
CONTINUOUS
 62
               3
  5
D3
 10
24.041452
 20
-61.443306999999997
 30
0.0
 11
23.423642000000001
 21
-61.799999999999997
 31
0.0
  0
LINE
  8
0
  6
CONTINUOUS
 62
               3
  5
D4
 10
15.000000999999999
 20
-57.600000000000001
 30
0.0
 11
25.000001000000001
 21
-57.600000000000001
 31
0.0
  0
LINE
  8
0
  6
CONTINUOUS
 62
               3
  5
D5
 10
16.200001
 20
-58.600000000000001
 30
0.0
 11
23.800001000000002
 21
-58.600000000000001
 31
0.0
  0
LINE
  8
0
  6
CONTINUOUS
 62
              80
  5
D6
 10
19.500001000000001
 20
-58.600000000000001
 30
0.0
 11
20.500001000000001
 21
-57.600000000000001
 31
0.0
  0
LINE
  8
0
  6
CONTINUOUS
 62
               3
  5
D7
 10
23.800001000000002
 20
-57.600000000000001
 30
0.0
 11
23.800001000000002
 21
-58.600000000000001
 31
0.0
  0
LINE
  8
0
  6
CONTINUOUS
 62
               3
  5
D8
 10
16.200001
 20
-57.600000000000001
 30
0.0
 11
16.200001
 21
-58.600000000000001
 31
0.0
  0
LINE
  8
0
  6
CONTINUOUS
 62
               3
  5
D9
 10
18.500001000000001
 20
-68.0
 30
0.0
 11
21.500001000000001
 21
-68.0
 31
0.0
  0
LINE
  8
0
  6
CONTINUOUS
 62
               3
  5
DA
 10
22.000001000000001
 20
-61.799999999999997
 30
0.0
 11
22.000001000000001
 21
-67.5
 31
0.0
  0
LINE
  8
0
  6
CONTINUOUS
 62
               3
  5
DB
 10
18.000001000000001
 20
-61.799999999999997
 30
0.0
 11
18.000001000000001
 21
-67.5
 31
0.0
  0
LINE
  8
0
  6
CONTINUOUS
 62
              80
  5
DC
 10
18.000001000000001
 20
-67.5
 30
0.0
 11
22.000001000000001
 21
-67.5
 31
0.0
  0
LINE
  8
0
  6
CONTINUOUS
 62
              80
  5
DD
 10
18.500001000000001
 20
-61.799999999999997
 30
0.0
 11
18.500001000000001
 21
-68.0
 31
0.0
  0
LINE
  8
0
  6
CONTINUOUS
 62
              80
  5
DE
 10
21.500001000000001
 20
-61.799999999999997
 30
0.0
 11
21.500001000000001
 21
-68.0
 31
0.0
  0
LINE
  8
0
  6
CONTINUOUS
 62
               3
  5
DF
 10
18.000001000000001
 20
-67.5
 30
0.0
 11
18.500001000000001
 21
-68.0
 31
0.0
  0
LINE
  8
0
  6
CONTINUOUS
 62
               3
  5
E0
 10
22.000001000000001
 20
-67.5
 30
0.0
 11
21.500001000000001
 21
-68.0
 31
0.0
  0
ARC
  8
0
  6
CONTINUOUS
 62
              80
  5
E1
 10
16.968912
 20
-60.065026000000003
 30
0.0
 40
1.4650259999999999
 50
46.397181000000003
 51
119.99999999999999
  0
ARC
  8
0
  6
CONTINUOUS
 62
              80
  5
E2
 10
16.968912
 20
-60.334974000000003
 30
0.0
 40
1.4650259999999999
 50
239.99999999999997
 51
313.60281900000001
  0
ARC
  8
0
  6
CONTINUOUS
 62
              80
  5
E3
 10
23.031089000000001
 20
-60.065026000000003
 30
0.0
 40
1.4650259999999999
 50
59.999999999999993
 51
133.60281900000001
  0
ARC
  8
0
  6
CONTINUOUS
 62
              80
  5
E4
 10
23.031089000000001
 20
-60.334974000000003
 30
0.0
 40
1.4650259999999999
 50
226.39718099999999
 51
300.0
  0
ARC
  8
0
  6
CONTINUOUS
 62
              80
  5
E5
 10
20.000001000000001
 20
-63.853887
 30
0.0
 40
5.2538869999999998
 50
67.380134999999996
 51
112.619865
  0
ARC
  8
0
  6
CONTINUOUS
 62
              80
  5
E6
 10
20.000001000000001
 20
-56.546112999999998
 30
0.0
 40
5.2538869999999998
 50
247.38013499999997
 51
292.619865
  0
LINE
  8
0
  6
CONTINUOUS
 62
               3
  5
E7
 10
15.000000999999999
 20
-56.799999999999997
 30
0.0
 11
15.000000999999999
 21
-57.600000000000001
 31
0.0
  0
LINE
  8
0
  6
CONTINUOUS
 62
               3
  5
E8
 10
25.000001000000001
 20
-56.799999999999997
 30
0.0
 11
25.000001000000001
 21
-57.600000000000001
 31
0.0
  0
ARC
  8
0
  6
CONTINUOUS
 62
              80
  5
E9
 10
-9.9999990000000007
 20
-56.546112999999998
 30
0.0
 40
5.2538869999999998
 50
247.38013499999997
 51
292.619865
  0
ARC
  8
0
  6
CONTINUOUS
 62
              80
  5
EA
 10
-9.9999990000000007
 20
-63.853887
 30
0.0
 40
5.2538869999999998
 50
67.380134999999996
 51
112.619865
  0
ARC
  8
0
  6
CONTINUOUS
 62
              80
  5
EB
 10
-6.9689110000000003
 20
-60.334974000000003
 30
0.0
 40
1.4650259999999999
 50
226.39718099999999
 51
300.0
  0
ARC
  8
0
  6
CONTINUOUS
 62
              80
  5
EC
 10
-6.9689110000000003
 20
-60.065026000000003
 30
0.0
 40
1.4650259999999999
 50
59.999999999999993
 51
133.60281900000001
  0
ARC
  8
0
  6
CONTINUOUS
 62
              80
  5
ED
 10
-13.031088
 20
-60.334974000000003
 30
0.0
 40
1.4650259999999999
 50
239.99999999999997
 51
313.60281900000001
  0
ARC
  8
0
  6
CONTINUOUS
 62
              80
  5
EE
 10
-13.031088
 20
-60.065026000000003
 30
0.0
 40
1.4650259999999999
 50
46.397181000000003
 51
119.99999999999999
  0
ARC
  8
0
  6
CONTINUOUS
 62
               3
  5
EF
 10
-28.999998999999999
 20
-41.999809999999997
 30
0.0
 40
1.0
 50
180.0
 51
269.50000000000006
  0
ARC
  8
0
  6
CONTINUOUS
 62
               3
  5
F0
 10
-28.999998999999999
 20
-50.013617000000004
 30
0.0
 40
1.0
 50
90.5
 51
180.0
  0
ARC
  8
0
  6
CONTINUOUS
 62
               3
  5
F1
 10
29.000001000000001
 20
-41.999809999999997
 30
0.0
 40
1.0
 50
270.5
 51
0.0
  0
ARC
  8
0
  6
CONTINUOUS
 62
               3
  5
F2
 10
29.000001000000001
 20
-50.013617000000004
 30
0.0
 40
1.0
 50
0.0
 51
89.5
  0
LINE
  8
0
  6
CONTINUOUS
 62
               3
  5
F3
 10
-7.9999989999999999
 20
-67.5
 30
0.0
 11
-8.4999990000000007
 21
-68.0
 31
0.0
  0
LINE
  8
0
  6
CONTINUOUS
 62
               3
  5
F4
 10
-11.999999000000001
 20
-67.5
 30
0.0
 11
-11.499999000000001
 21
-68.0
 31
0.0
  0
LINE
  8
0
  6
CONTINUOUS
 62
              80
  5
F5
 10
-8.4999990000000007
 20
-61.799999999999997
 30
0.0
 11
-8.4999990000000007
 21
-68.0
 31
0.0
  0
LINE
  8
0
  6
CONTINUOUS
 62
              80
  5
F6
 10
-11.499999000000001
 20
-61.799999999999997
 30
0.0
 11
-11.499999000000001
 21
-68.0
 31
0.0
  0
LINE
  8
0
  6
CONTINUOUS
 62
              80
  5
F7
 10
-11.999999000000001
 20
-67.5
 30
0.0
 11
-7.9999989999999999
 21
-67.5
 31
0.0
  0
LINE
  8
0
  6
CONTINUOUS
 62
               3
  5
F8
 10
-11.999999000000001
 20
-61.799999999999997
 30
0.0
 11
-11.999999000000001
 21
-67.5
 31
0.0
  0
LINE
  8
0
  6
CONTINUOUS
 62
               3
  5
F9
 10
-7.9999989999999999
 20
-61.799999999999997
 30
0.0
 11
-7.9999989999999999
 21
-67.5
 31
0.0
  0
LINE
  8
0
  6
CONTINUOUS
 62
               3
  5
FA
 10
-11.499999000000001
 20
-68.0
 30
0.0
 11
-8.4999990000000007
 21
-68.0
 31
0.0
  0
LINE
  8
0
  6
CONTINUOUS
 62
               3
  5
FB
 10
-13.799999
 20
-57.600000000000001
 30
0.0
 11
-13.799999
 21
-58.600000000000001
 31
0.0
  0
LINE
  8
0
  6
CONTINUOUS
 62
               3
  5
FC
 10
-6.199999
 20
-57.600000000000001
 30
0.0
 11
-6.199999
 21
-58.600000000000001
 31
0.0
  0
LINE
  8
0
  6
CONTINUOUS
 62
              80
  5
FD
 10
-10.499999000000001
 20
-58.600000000000001
 30
0.0
 11
-9.4999990000000007
 21
-57.600000000000001
 31
0.0
  0
LINE
  8
0
  6
CONTINUOUS
 62
               3
  5
FE
 10
-13.799999
 20
-58.600000000000001
 30
0.0
 11
-6.199999
 21
-58.600000000000001
 31
0.0
  0
LINE
  8
0
  6
CONTINUOUS
 62
               3
  5
FF
 10
-14.999999000000001
 20
-56.799999999999997
 30
0.0
 11
-14.999999000000001
 21
-57.600000000000001
 31
0.0
  0
LINE
  8
0
  6
CONTINUOUS
 62
               3
  5
100
 10
-4.9999989999999999
 20
-56.799999999999997
 30
0.0
 11
-4.9999989999999999
 21
-57.600000000000001
 31
0.0
  0
LINE
  8
0
  6
CONTINUOUS
 62
               3
  5
101
 10
-14.999999000000001
 20
-57.600000000000001
 30
0.0
 11
-4.9999989999999999
 21
-57.600000000000001
 31
0.0
  0
LINE
  8
0
  6
CONTINUOUS
 62
               3
  5
102
 10
-5.9585480000000004
 20
-61.443306999999997
 30
0.0
 11
-6.5763579999999999
 21
-61.799999999999997
 31
0.0
  0
LINE
  8
0
  6
CONTINUOUS
 62
               3
  5
103
 10
-5.9585480000000004
 20
-58.956693000000001
 30
0.0
 11
-6.5763579999999999
 21
-58.600000000000001
 31
0.0
  0
LINE
  8
0
  6
CONTINUOUS
 62
              80
  5
104
 10
-7.9792730000000001
 20
-59.004145000000001
 30
0.0
 11
-7.9792730000000001
 21
-61.395854999999997
 31
0.0
  0
LINE
  8
0
  6
CONTINUOUS
 62
               3
  5
105
 10
-5.9585480000000004
 20
-58.956693000000001
 30
0.0
 11
-5.9585480000000004
 21
-61.443306999999997
 31
0.0
  0
LINE
  8
0
  6
CONTINUOUS
 62
               3
  5
106
 10
-14.041451
 20
-61.443306999999997
 30
0.0
 11
-13.423641
 21
-61.799999999999997
 31
0.0
  0
LINE
  8
0
  6
CONTINUOUS
 62
               3
  5
107
 10
-14.041451
 20
-58.956693000000001
 30
0.0
 11
-13.423641
 21
-58.600000000000001
 31
0.0
  0
LINE
  8
0
  6
CONTINUOUS
 62
              80
  5
108
 10
-12.020725000000001
 20
-59.004145000000001
 30
0.0
 11
-12.020725000000001
 21
-61.395854999999997
 31
0.0
  0
LINE
  8
0
  6
CONTINUOUS
 62
               3
  5
109
 10
-14.041451
 20
-58.956693000000001
 30
0.0
 11
-14.041451
 21
-61.443306999999997
 31
0.0
  0
LINE
  8
0
  6
CONTINUOUS
 62
               3
  5
10A
 10
-13.423641
 20
-61.799999999999997
 30
0.0
 11
-6.5763579999999999
 21
-61.799999999999997
 31
0.0
  0
LINE
  8
0
  6
CONTINUOUS
 62
               3
  5
10B
 10
-31.999998999999999
 20
-56.799999999999997
 30
0.0
 11
32.000000999999997
 21
-56.799999999999997
 31
0.0
  0
LINE
  8
0
  6
CONTINUOUS
 62
               3
  5
10C
 10
32.000000999999997
 20
-54.799999999999997
 30
0.0
 11
32.000000999999997
 21
-56.799999999999997
 31
0.0
  0
LINE
  8
0
  6
CONTINUOUS
 62
               3
  5
10D
 10
-31.999998999999999
 20
-54.799999999999997
 30
0.0
 11
-31.999998999999999
 21
-56.799999999999997
 31
0.0
  0
LINE
  8
0
  6
CONTINUOUS
 62
               3
  5
10E
 10
29.5
 20
0.0
 30
0.0
 11
30.0
 21
-0.5
 31
0.0
  0
LINE
  8
0
  6
CONTINUOUS
 62
               3
  5
10F
 10
30.0
 20
-39.500000999999997
 30
0.0
 11
29.500001000000001
 21
-40.0
 31
0.0
  0
LINE
  8
0
  6
CONTINUOUS
 62
               3
  5
110
 10
30.0
 20
-0.5
 30
0.0
 11
30.0
 21
-39.5
 31
0.0
  0
LINE
  8
0
  6
CONTINUOUS
 62
               3
  5
111
 10
29.5
 20
-40.0
 30
0.0
 11
-29.5
 21
-40.0
 31
0.0
  0
LINE
  8
0
  6
CONTINUOUS
 62
               3
  5
112
 10
-29.5
 20
0.0
 30
0.0
 11
-30.0
 21
-0.5
 31
0.0
  0
LINE
  8
0
  6
CONTINUOUS
 62
               3
  5
113
 10
-30.0
 20
-39.500000999999997
 30
0.0
 11
-29.5
 21
-40.0
 31
0.0
  0
LINE
  8
0
  6
CONTINUOUS
 62
               3
  5
114
 10
-30.0
 20
-0.5
 30
0.0
 11
-30.0
 21
-39.5
 31
0.0
  0
LINE
  8
0
  6
CONTINUOUS
 62
               3
  5
115
 10
29.5
 20
0.0
 30
0.0
 11
-29.5
 21
0.0
 31
0.0
  0
LINE
  8
0
  6
CONTINUOUS
 62
               3
  5
116
 10
30.000001000000001
 20
-54.299999999999997
 30
0.0
 11
29.5
 21
-54.799999999999997
 31
0.0
  0
LINE
  8
0
  6
CONTINUOUS
 62
               3
  5
117
 10
-29.499998999999999
 20
-54.799999999999997
 30
0.0
 11
-30.0
 21
-54.299999
 31
0.0
  0
LINE
  8
0
  6
CONTINUOUS
 62
               3
  5
118
 10
-29.999998999999999
 20
-41.999809999999997
 30
0.0
 11
-29.999998999999999
 21
-40.5
 31
0.0
  0
LINE
  8
0
  6
CONTINUOUS
 62
               3
  5
119
 10
-28.699999999999999
 20
-49.013655
 30
0.0
 11
-28.699999999999999
 21
-42.999809999999997
 31
0.0
  0
LINE
  8
0
  6
CONTINUOUS
 62
               3
  5
11A
 10
-29.999998999999999
 20
-54.299999999999997
 30
0.0
 11
-29.999998999999999
 21
-50.013617000000004
 31
0.0
  0
LINE
  8
0
  6
CONTINUOUS
 62
               3
  5
11B
 10
-28.699999999999999
 20
-49.013655
 30
0.0
 11
-28.999998999999999
 21
-49.013655
 31
0.0
  0
LINE
  8
0
  6
CONTINUOUS
 62
               3
  5
11C
 10
30.000001000000001
 20
-41.999809999999997
 30
0.0
 11
30.000001000000001
 21
-40.5
 31
0.0
  0
LINE
  8
0
  6
CONTINUOUS
 62
               3
  5
11D
 10
-28.699999999999999
 20
-49.013655
 30
0.0
 11
29.000001000000001
 21
-49.013655
 31
0.0
  0
LINE
  8
0
  6
CONTINUOUS
 62
               3
  5
11E
 10
-28.699999999999999
 20
-42.999809999999997
 30
0.0
 11
-28.999998999999999
 21
-42.999809999999997
 31
0.0
  0
LINE
  8
0
  6
CONTINUOUS
 62
               3
  5
11F
 10
30.000001000000001
 20
-54.299999999999997
 30
0.0
 11
30.000001000000001
 21
-50.013617000000004
 31
0.0
  0
LINE
  8
0
  6
CONTINUOUS
 62
               3
  5
120
 10
-28.699999999999999
 20
-42.999809999999997
 30
0.0
 11
29.000001000000001
 21
-42.999809999999997
 31
0.0
  0
LINE
  8
0
  6
CONTINUOUS
 62
               3
  5
121
 10
29.500001000000001
 20
-40.0
 30
0.0
 11
30.000001000000001
 21
-40.5
 31
0.0
  0
LINE
  8
0
  6
CONTINUOUS
 62
               3
  5
122
 10
28.700001
 20
-49.013655
 30
0.0
 11
28.700001
 21
-42.999809999999997
 31
0.0
  0
LINE
  8
0
  6
CONTINUOUS
 62
               3
  5
123
 10
-29.499998999999999
 20
-40.0
 30
0.0
 11
-29.999998999999999
 21
-40.5
 31
0.0
  0
LINE
  8
0
  6
CONTINUOUS
 62
               3
  5
124
 10
32.000000999999997
 20
-54.799999999999997
 30
0.0
 11
-31.999998999999999
 21
-54.799999999999997
 31
0.0
  0
ENDBLK
  8
0
  5
125
  0
BLOCK
  8
0
  5
126
  2
MS_4
 70
               0
 10
0.0
 20
0.0
 30
0.0
  3
MS_4
  0
LINE
  8
0
  6
CONTINUOUS
 62
               3
  5
127
 10
-13.423641999999999
 20
-173.0
 30
0.0
 11
-6.5763579999999999
 21
-173.0
 31
0.0
  0
LINE
  8
0
  6
CONTINUOUS
 62
               3
  5
128
 10
-14.041452
 20
-170.15669299999999
 30
0.0
 11
-14.041452
 21
-172.64330699999999
 31
0.0
  0
LINE
  8
0
  6
CONTINUOUS
 62
              80
  5
129
 10
-12.020726
 20
-170.20414500000001
 30
0.0
 11
-12.020726
 21
-172.595855
 31
0.0
  0
LINE
  8
0
  6
CONTINUOUS
 62
               3
  5
12A
 10
-14.041452
 20
-170.15669299999999
 30
0.0
 11
-13.423641999999999
 21
-169.80000000000001
 31
0.0
  0
LINE
  8
0
  6
CONTINUOUS
 62
               3
  5
12B
 10
-14.041452
 20
-172.64330699999999
 30
0.0
 11
-13.423641999999999
 21
-173.0
 31
0.0
  0
LINE
  8
0
  6
CONTINUOUS
 62
               3
  5
12C
 10
-5.9585480000000004
 20
-170.15669299999999
 30
0.0
 11
-5.9585480000000004
 21
-172.64330699999999
 31
0.0
  0
LINE
  8
0
  6
CONTINUOUS
 62
              80
  5
12D
 10
-7.9792740000000002
 20
-170.20414500000001
 30
0.0
 11
-7.9792740000000002
 21
-172.595855
 31
0.0
  0
LINE
  8
0
  6
CONTINUOUS
 62
               3
  5
12E
 10
-5.9585480000000004
 20
-170.15669299999999
 30
0.0
 11
-6.5763579999999999
 21
-169.80000000000001
 31
0.0
  0
LINE
  8
0
  6
CONTINUOUS
 62
               3
  5
12F
 10
-5.9585480000000004
 20
-172.64330699999999
 30
0.0
 11
-6.5763579999999999
 21
-173.0
 31
0.0
  0
LINE
  8
0
  6
CONTINUOUS
 62
               3
  5
130
 10
-15.0
 20
-168.80000000000001
 30
0.0
 11
-5.0
 21
-168.80000000000001
 31
0.0
  0
LINE
  8
0
  6
CONTINUOUS
 62
               3
  5
131
 10
-5.0
 20
-168.0
 30
0.0
 11
-5.0
 21
-168.80000000000001
 31
0.0
  0
LINE
  8
0
  6
CONTINUOUS
 62
               3
  5
132
 10
-15.0
 20
-168.0
 30
0.0
 11
-15.0
 21
-168.80000000000001
 31
0.0
  0
LINE
  8
0
  6
CONTINUOUS
 62
               3
  5
133
 10
-13.800000000000001
 20
-169.80000000000001
 30
0.0
 11
-6.2000000000000002
 21
-169.80000000000001
 31
0.0
  0
LINE
  8
0
  6
CONTINUOUS
 62
              80
  5
134
 10
-10.5
 20
-169.80000000000001
 30
0.0
 11
-9.5
 21
-168.80000000000001
 31
0.0
  0
LINE
  8
0
  6
CONTINUOUS
 62
               3
  5
135
 10
-6.2000000000000002
 20
-168.80000000000001
 30
0.0
 11
-6.2000000000000002
 21
-169.80000000000001
 31
0.0
  0
LINE
  8
0
  6
CONTINUOUS
 62
               3
  5
136
 10
-13.800000000000001
 20
-168.80000000000001
 30
0.0
 11
-13.800000000000001
 21
-169.80000000000001
 31
0.0
  0
LINE
  8
0
  6
CONTINUOUS
 62
               3
  5
137
 10
-11.5
 20
-179.19999999999999
 30
0.0
 11
-8.5
 21
-179.19999999999999
 31
0.0
  0
LINE
  8
0
  6
CONTINUOUS
 62
               3
  5
138
 10
-8.0
 20
-173.0
 30
0.0
 11
-8.0
 21
-178.69999999999999
 31
0.0
  0
LINE
  8
0
  6
CONTINUOUS
 62
               3
  5
139
 10
-12.0
 20
-173.0
 30
0.0
 11
-12.0
 21
-178.69999999999999
 31
0.0
  0
LINE
  8
0
  6
CONTINUOUS
 62
              80
  5
13A
 10
-12.0
 20
-178.69999999999999
 30
0.0
 11
-8.0
 21
-178.69999999999999
 31
0.0
  0
LINE
  8
0
  6
CONTINUOUS
 62
              80
  5
13B
 10
-11.5
 20
-173.0
 30
0.0
 11
-11.5
 21
-179.19999999999999
 31
0.0
  0
LINE
  8
0
  6
CONTINUOUS
 62
              80
  5
13C
 10
-8.5
 20
-173.0
 30
0.0
 11
-8.5
 21
-179.19999999999999
 31
0.0
  0
LINE
  8
0
  6
CONTINUOUS
 62
               3
  5
13D
 10
-12.0
 20
-178.69999999999999
 30
0.0
 11
-11.5
 21
-179.19999999999999
 31
0.0
  0
LINE
  8
0
  6
CONTINUOUS
 62
               3
  5
13E
 10
-8.0
 20
-178.69999999999999
 30
0.0
 11
-8.5
 21
-179.19999999999999
 31
0.0
  0
ARC
  8
0
  6
CONTINUOUS
 62
              80
  5
13F
 10
-13.031089
 20
-171.26502600000001
 30
0.0
 40
1.4650259999999999
 50
46.397181000000003
 51
119.99999999999999
  0
ARC
  8
0
  6
CONTINUOUS
 62
              80
  5
140
 10
-13.031089
 20
-171.53497300000001
 30
0.0
 40
1.4650259999999999
 50
239.99999999999997
 51
313.60281900000001
  0
ARC
  8
0
  6
CONTINUOUS
 62
              80
  5
141
 10
-6.9689110000000003
 20
-171.26502600000001
 30
0.0
 40
1.4650259999999999
 50
59.999999999999993
 51
133.60281900000001
  0
ARC
  8
0
  6
CONTINUOUS
 62
              80
  5
142
 10
-6.9689110000000003
 20
-171.53497300000001
 30
0.0
 40
1.4650259999999999
 50
226.39718099999999
 51
300.0
  0
ARC
  8
0
  6
CONTINUOUS
 62
              80
  5
143
 10
-10.0
 20
-175.053887
 30
0.0
 40
5.2538869999999998
 50
67.380134999999996
 51
112.619865
  0
ARC
  8
0
  6
CONTINUOUS
 62
              80
  5
144
 10
-10.0
 20
-167.74611200000001
 30
0.0
 40
5.2538869999999998
 50
247.38013499999997
 51
292.619865
  0
LINE
  8
0
  6
CONTINUOUS
 62
               3
  5
145
 10
25.0
 20
-168.0
 30
0.0
 11
25.0
 21
-168.80000000000001
 31
0.0
  0
LINE
  8
0
  6
CONTINUOUS
 62
               3
  5
146
 10
15.0
 20
-168.0
 30
0.0
 11
15.0
 21
-168.80000000000001
 31
0.0
  0
ARC
  8
0
  6
CONTINUOUS
 62
              80
  5
147
 10
20.0
 20
-167.74611200000001
 30
0.0
 40
5.2538869999999998
 50
247.38013499999997
 51
292.619865
  0
ARC
  8
0
  6
CONTINUOUS
 62
              80
  5
148
 10
20.0
 20
-175.053887
 30
0.0
 40
5.2538869999999998
 50
67.380134999999996
 51
112.619865
  0
ARC
  8
0
  6
CONTINUOUS
 62
              80
  5
149
 10
23.031089000000001
 20
-171.53497300000001
 30
0.0
 40
1.4650259999999999
 50
226.39718099999999
 51
300.0
  0
ARC
  8
0
  6
CONTINUOUS
 62
              80
  5
14A
 10
23.031089000000001
 20
-171.26502600000001
 30
0.0
 40
1.4650259999999999
 50
59.999999999999993
 51
133.60281900000001
  0
ARC
  8
0
  6
CONTINUOUS
 62
              80
  5
14B
 10
16.968910999999999
 20
-171.53497300000001
 30
0.0
 40
1.4650259999999999
 50
239.99999999999997
 51
313.60281900000001
  0
ARC
  8
0
  6
CONTINUOUS
 62
              80
  5
14C
 10
16.968910999999999
 20
-171.26502600000001
 30
0.0
 40
1.4650259999999999
 50
46.397181000000003
 51
119.99999999999999
  0
LINE
  8
0
  6
CONTINUOUS
 62
               3
  5
14D
 10
22.0
 20
-178.69999999999999
 30
0.0
 11
21.5
 21
-179.19999999999999
 31
0.0
  0
LINE
  8
0
  6
CONTINUOUS
 62
               3
  5
14E
 10
18.0
 20
-178.69999999999999
 30
0.0
 11
18.5
 21
-179.19999999999999
 31
0.0
  0
LINE
  8
0
  6
CONTINUOUS
 62
              80
  5
14F
 10
21.5
 20
-173.0
 30
0.0
 11
21.5
 21
-179.19999999999999
 31
0.0
  0
LINE
  8
0
  6
CONTINUOUS
 62
              80
  5
150
 10
18.5
 20
-173.0
 30
0.0
 11
18.5
 21
-179.19999999999999
 31
0.0
  0
LINE
  8
0
  6
CONTINUOUS
 62
              80
  5
151
 10
18.0
 20
-178.69999999999999
 30
0.0
 11
22.0
 21
-178.69999999999999
 31
0.0
  0
LINE
  8
0
  6
CONTINUOUS
 62
               3
  5
152
 10
18.0
 20
-173.0
 30
0.0
 11
18.0
 21
-178.69999999999999
 31
0.0
  0
LINE
  8
0
  6
CONTINUOUS
 62
               3
  5
153
 10
22.0
 20
-173.0
 30
0.0
 11
22.0
 21
-178.69999999999999
 31
0.0
  0
LINE
  8
0
  6
CONTINUOUS
 62
               3
  5
154
 10
18.5
 20
-179.19999999999999
 30
0.0
 11
21.5
 21
-179.19999999999999
 31
0.0
  0
LINE
  8
0
  6
CONTINUOUS
 62
               3
  5
155
 10
16.199999999999999
 20
-168.80000000000001
 30
0.0
 11
16.199999999999999
 21
-169.80000000000001
 31
0.0
  0
LINE
  8
0
  6
CONTINUOUS
 62
               3
  5
156
 10
23.800000000000001
 20
-168.80000000000001
 30
0.0
 11
23.800000000000001
 21
-169.80000000000001
 31
0.0
  0
LINE
  8
0
  6
CONTINUOUS
 62
              80
  5
157
 10
19.5
 20
-169.80000000000001
 30
0.0
 11
20.5
 21
-168.80000000000001
 31
0.0
  0
LINE
  8
0
  6
CONTINUOUS
 62
               3
  5
158
 10
16.199999999999999
 20
-169.80000000000001
 30
0.0
 11
23.800000000000001
 21
-169.80000000000001
 31
0.0
  0
LINE
  8
0
  6
CONTINUOUS
 62
               3
  5
159
 10
15.0
 20
-168.80000000000001
 30
0.0
 11
25.0
 21
-168.80000000000001
 31
0.0
  0
LINE
  8
0
  6
CONTINUOUS
 62
               3
  5
15A
 10
24.041452
 20
-172.64330699999999
 30
0.0
 11
23.423642000000001
 21
-173.0
 31
0.0
  0
LINE
  8
0
  6
CONTINUOUS
 62
               3
  5
15B
 10
24.041452
 20
-170.15669299999999
 30
0.0
 11
23.423642000000001
 21
-169.80000000000001
 31
0.0
  0
LINE
  8
0
  6
CONTINUOUS
 62
              80
  5
15C
 10
22.020726
 20
-170.20414500000001
 30
0.0
 11
22.020726
 21
-172.595855
 31
0.0
  0
LINE
  8
0
  6
CONTINUOUS
 62
               3
  5
15D
 10
24.041452
 20
-170.15669299999999
 30
0.0
 11
24.041452
 21
-172.64330699999999
 31
0.0
  0
LINE
  8
0
  6
CONTINUOUS
 62
               3
  5
15E
 10
15.958548
 20
-172.64330699999999
 30
0.0
 11
16.576357999999999
 21
-173.0
 31
0.0
  0
LINE
  8
0
  6
CONTINUOUS
 62
               3
  5
15F
 10
15.958548
 20
-170.15669299999999
 30
0.0
 11
16.576357999999999
 21
-169.80000000000001
 31
0.0
  0
LINE
  8
0
  6
CONTINUOUS
 62
              80
  5
160
 10
17.979274
 20
-170.20414500000001
 30
0.0
 11
17.979274
 21
-172.595855
 31
0.0
  0
LINE
  8
0
  6
CONTINUOUS
 62
               3
  5
161
 10
15.958548
 20
-170.15669299999999
 30
0.0
 11
15.958548
 21
-172.64330699999999
 31
0.0
  0
LINE
  8
0
  6
CONTINUOUS
 62
               3
  5
162
 10
16.576357999999999
 20
-173.0
 30
0.0
 11
23.423642000000001
 21
-173.0
 31
0.0
  0
LINE
  8
0
  6
CONTINUOUS
 62
               3
  5
163
 10
-29.5
 20
0.0
 30
0.0
 11
29.5
 21
0.0
 31
0.0
  0
LINE
  8
0
  6
CONTINUOUS
 62
               3
  5
164
 10
29.5
 20
0.0
 30
0.0
 11
30.0
 21
-0.5
 31
0.0
  0
LINE
  8
0
  6
CONTINUOUS
 62
               3
  5
165
 10
-29.5
 20
0.0
 30
0.0
 11
-30.0
 21
-0.5
 31
0.0
  0
LINE
  8
0
  6
CONTINUOUS
 62
               3
  5
166
 10
-33.499999000000003
 20
-165.500001
 30
0.0
 11
-33.0
 21
-166.0
 31
0.0
  0
LINE
  8
0
  6
CONTINUOUS
 62
               3
  5
167
 10
-33.5
 20
-165.500001
 30
0.0
 11
-33.5
 21
-157.5
 31
0.0
  0
LINE
  8
0
  6
CONTINUOUS
 62
               3
  5
168
 10
-32.0
 20
-156.0
 30
0.0
 11
-32.0
 21
-150.0
 31
0.0
  0
ARC
  8
0
  6
CONTINUOUS
 62
               3
  5
169
 10
-32.0
 20
-148.5
 30
0.0
 40
1.5
 50
180.0
 51
270.0
  0
LINE
  8
0
  6
CONTINUOUS
 62
               3
  5
16A
 10
-29.5
 20
-141.0
 30
0.0
 11
-30.0
 21
-141.5
 31
0.0
  0
ARC
  8
0
  6
CONTINUOUS
 62
               3
  5
16B
 10
-34.599879000000001
 20
-141.53342799999999
 30
0.0
 40
4.5999999999999996
 50
283.83366599999999
 51
0.4163669999999851
  0
ARC
  8
0
  6
CONTINUOUS
 62
               3
  5
16C
 10
-32.0
 20
-157.5
 30
0.0
 40
1.5
 50
90.0
 51
180.0
  0
LINE
  8
0
  6
CONTINUOUS
 62
               3
  5
16D
 10
-33.5
 20
-148.5
 30
0.0
 11
-33.5
 21
-146.0
 31
0.0
  0
LINE
  8
0
  6
CONTINUOUS
 62
               3
  5
16E
 10
-35.0
 20
-166.0
 30
0.0
 11
-35.0
 21
-168.0
 31
0.0
  0
LINE
  8
0
  6
CONTINUOUS
 62
               3
  5
16F
 10
-29.999998999999999
 20
-140.5
 30
0.0
 11
-29.5
 21
-141.0
 31
0.0
  0
LINE
  8
0
  6
CONTINUOUS
 62
               3
  5
170
 10
-30.0
 20
-0.5
 30
0.0
 11
-30.0
 21
-140.5
 31
0.0
  0
LINE
  8
0
  6
CONTINUOUS
 62
               3
  5
171
 10
33.499999000000003
 20
-165.500001
 30
0.0
 11
33.0
 21
-166.0
 31
0.0
  0
LINE
  8
0
  6
CONTINUOUS
 62
               3
  5
172
 10
33.5
 20
-148.5
 30
0.0
 11
33.5
 21
-146.0
 31
0.0
  0
ARC
  8
0
  6
CONTINUOUS
 62
               3
  5
173
 10
32.0
 20
-157.5
 30
0.0
 40
1.5
 50
0.0
 51
90.0
  0
ARC
  8
0
  6
CONTINUOUS
 62
               3
  5
174
 10
34.599879000000001
 20
-141.53342799999999
 30
0.0
 40
4.5999999999999996
 50
179.58363299999999
 51
256.16633400000001
  0
LINE
  8
0
  6
CONTINUOUS
 62
               3
  5
175
 10
29.5
 20
-141.0
 30
0.0
 11
30.0
 21
-141.5
 31
0.0
  0
ARC
  8
0
  6
CONTINUOUS
 62
               3
  5
176
 10
32.0
 20
-148.5
 30
0.0
 40
1.5
 50
270.0
 51
0.0
  0
LINE
  8
0
  6
CONTINUOUS
 62
               3
  5
177
 10
32.0
 20
-156.0
 30
0.0
 11
32.0
 21
-150.0
 31
0.0
  0
LINE
  8
0
  6
CONTINUOUS
 62
               3
  5
178
 10
33.5
 20
-165.5
 30
0.0
 11
33.5
 21
-157.5
 31
0.0
  0
LINE
  8
0
  6
CONTINUOUS
 62
               3
  5
179
 10
35.0
 20
-166.0
 30
0.0
 11
35.0
 21
-168.0
 31
0.0
  0
LINE
  8
0
  6
CONTINUOUS
 62
               3
  5
17A
 10
29.999998999999999
 20
-140.5
 30
0.0
 11
29.5
 21
-141.0
 31
0.0
  0
LINE
  8
0
  6
CONTINUOUS
 62
               3
  5
17B
 10
30.0
 20
-0.5
 30
0.0
 11
30.0
 21
-140.5
 31
0.0
  0
LINE
  8
0
  6
CONTINUOUS
 62
               3
  5
17C
 10
-29.5
 20
-141.0
 30
0.0
 11
29.5
 21
-141.0
 31
0.0
  0
LINE
  8
0
  6
CONTINUOUS
 62
               3
  5
17D
 10
-33.5
 20
-146.0
 30
0.0
 11
33.5
 21
-146.0
 31
0.0
  0
LINE
  8
0
  6
CONTINUOUS
 62
               3
  5
17E
 10
-32.0
 20
-150.0
 30
0.0
 11
32.0
 21
-150.0
 31
0.0
  0
LINE
  8
0
  6
CONTINUOUS
 62
               3
  5
17F
 10
-32.0
 20
-156.0
 30
0.0
 11
32.0
 21
-156.0
 31
0.0
  0
LINE
  8
0
  6
CONTINUOUS
 62
               3
  5
180
 10
-35.0
 20
-168.0
 30
0.0
 11
35.0
 21
-168.0
 31
0.0
  0
LINE
  8
0
  6
CONTINUOUS
 62
               3
  5
181
 10
35.0
 20
-166.0
 30
0.0
 11
-35.0
 21
-166.0
 31
0.0
  0
ENDBLK
  8
0
  5
182
  0
BLOCK
  8
0
  5
183
  2
MS_5
 70
               0
 10
0.0
 20
0.0
 30
0.0
  3
MS_5
  0
LINE
  8
0
  6
CONTINUOUS
 62
               3
  5
184
 10
29.5
 20
0.0
 30
0.0
 11
-29.5
 21
0.0
 31
0.0
  0
LINE
  8
0
  6
CONTINUOUS
 62
               3
  5
185
 10
29.5
 20
40.0
 30
0.0
 11
30.0
 21
39.5
 31
0.0
  0
LINE
  8
0
  6
CONTINUOUS
 62
               3
  5
186
 10
-29.5
 20
40.0
 30
0.0
 11
-30.0
 21
39.5
 31
0.0
  0
LINE
  8
0
  6
CONTINUOUS
 62
               3
  5
187
 10
-30.0
 20
39.5
 30
0.0
 11
-30.0
 21
37.649999999999999
 31
0.0
  0
ARC
  8
0
  6
CONTINUOUS
 62
               3
  5
188
 10
-29.5
 20
12.99039
 30
0.0
 40
0.5
 50
145.370441
 51
180.0
  0
ARC
  8
0
  6
CONTINUOUS
 62
               3
  5
189
 10
-29.5
 20
19.809609999999999
 30
0.0
 40
0.5
 50
180.0
 51
214.629559
  0
ARC
  8
0
  6
CONTINUOUS
 62
               3
  5
18A
 10
-29.5
 20
19.990390000000001
 30
0.0
 40
0.5
 50
145.370441
 51
180.0
  0
ARC
  8
0
  6
CONTINUOUS
 62
               3
  5
18B
 10
-29.5
 20
26.809609999999999
 30
0.0
 40
0.5
 50
180.0
 51
214.629559
  0
LINE
  8
0
  6
CONTINUOUS
 62
               3
  5
18C
 10
-30.0
 20
7.448054
 30
0.0
 11
-30.0
 21
7.3519459999999999
 31
0.0
  0
LINE
  8
0
  6
CONTINUOUS
 62
               3
  5
18D
 10
-30.0
 20
32.351945999999998
 30
0.0
 11
-30.0
 21
32.448053999999999
 31
0.0
  0
LINE
  8
0
  6
CONTINUOUS
 62
               3
  5
18E
 10
-30.0
 20
26.948053999999999
 30
0.0
 11
-30.0
 21
26.809609999999999
 31
0.0
  0
LINE
  8
0
  6
CONTINUOUS
 62
               3
  5
18F
 10
-30.0
 20
19.990390000000001
 30
0.0
 11
-30.0
 21
19.809609999999999
 31
0.0
  0
LINE
  8
0
  6
CONTINUOUS
 62
               3
  5
190
 10
-30.0
 20
12.99039
 30
0.0
 11
-30.0
 21
12.851946
 31
0.0
  0
LINE
  8
0
  6
CONTINUOUS
 62
               3
  5
191
 10
-30.0
 20
2.1499999999999999
 30
0.0
 11
-30.0
 21
0.5
 31
0.0
  0
ARC
  8
0
  6
CONTINUOUS
 62
               3
  5
192
 10
-29.5
 20
32.448053999999999
 30
0.0
 40
0.5
 50
137.50806600000001
 51
180.0
  0
ARC
  8
0
  6
CONTINUOUS
 62
               3
  5
193
 10
-29.5
 20
32.351945999999998
 30
0.0
 40
0.5
 50
180.0
 51
222.49193399999999
  0
ARC
  8
0
  6
CONTINUOUS
 62
               3
  5
194
 10
-29.5
 20
26.948053999999999
 30
0.0
 40
0.5
 50
137.50806600000001
 51
180.0
  0
ARC
  8
0
  6
CONTINUOUS
 62
               3
  5
195
 10
-29.5
 20
12.851946
 30
0.0
 40
0.5
 50
180.0
 51
222.49193399999999
  0
ARC
  8
0
  6
CONTINUOUS
 62
               3
  5
196
 10
-29.5
 20
7.448054
 30
0.0
 40
0.5
 50
137.50806600000001
 51
180.0
  0
ARC
  8
0
  6
CONTINUOUS
 62
               3
  5
197
 10
-29.5
 20
7.3519459999999999
 30
0.0
 40
0.5
 50
180.0
 51
222.49193399999999
  0
ARC
  8
0
  6
CONTINUOUS
 62
               3
  5
198
 10
-32.449489999999997
 20
35.149999999999999
 30
0.0
 40
3.5
 50
317.50806599999999
 51
45.584691000000014
  0
ARC
  8
0
  6
CONTINUOUS
 62
               3
  5
199
 10
-34.437060000000002
 20
16.399999999999999
 30
0.0
 40
5.5
 50
325.37044100000003
 51
34.629558999999993
  0
ARC
  8
0
  6
CONTINUOUS
 62
               3
  5
19A
 10
-34.437060000000002
 20
23.399999999999999
 30
0.0
 40
5.5
 50
325.37044100000003
 51
34.629558999999993
  0
ARC
  8
0
  6
CONTINUOUS
 62
               3
  5
19B
 10
-32.449489999999997
 20
29.649999999999999
 30
0.0
 40
3.5
 50
317.50806599999999
 51
42.491934000000015
  0
ARC
  8
0
  6
CONTINUOUS
 62
               3
  5
19C
 10
-32.449489999999997
 20
10.15
 30
0.0
 40
3.5
 50
317.50806599999999
 51
42.491934000000015
  0
ARC
  8
0
  6
CONTINUOUS
 62
               3
  5
19D
 10
-32.449489999999997
 20
4.6500000000000004
 30
0.0
 40
3.5
 50
314.41530899999998
 51
42.491934000000015
  0
ARC
  8
0
  6
CONTINUOUS
 62
               3
  5
19E
 10
29.5
 20
7.3519459999999999
 30
0.0
 40
0.5
 50
317.50806599999999
 51
0.0
  0
ARC
  8
0
  6
CONTINUOUS
 62
               3
  5
19F
 10
29.5
 20
7.448054
 30
0.0
 40
0.5
 50
0.0
 51
42.491934000000008
  0
ARC
  8
0
  6
CONTINUOUS
 62
               3
  5
1A0
 10
29.5
 20
12.851946
 30
0.0
 40
0.5
 50
317.50806599999999
 51
0.0
  0
ARC
  8
0
  6
CONTINUOUS
 62
               3
  5
1A1
 10
29.5
 20
12.99039
 30
0.0
 40
0.5
 50
0.0
 51
34.629559
  0
ARC
  8
0
  6
CONTINUOUS
 62
               3
  5
1A2
 10
29.5
 20
19.809609999999999
 30
0.0
 40
0.5
 50
325.37044100000003
 51
0.0
  0
ARC
  8
0
  6
CONTINUOUS
 62
               3
  5
1A3
 10
29.5
 20
19.990390000000001
 30
0.0
 40
0.5
 50
0.0
 51
34.629559
  0
ARC
  8
0
  6
CONTINUOUS
 62
               3
  5
1A4
 10
29.5
 20
26.809609999999999
 30
0.0
 40
0.5
 50
325.37044100000003
 51
0.0
  0
ARC
  8
0
  6
CONTINUOUS
 62
               3
  5
1A5
 10
29.5
 20
26.948053999999999
 30
0.0
 40
0.5
 50
0.0
 51
42.491934000000008
  0
ARC
  8
0
  6
CONTINUOUS
 62
               3
  5
1A6
 10
29.5
 20
32.351945999999998
 30
0.0
 40
0.5
 50
317.50806599999999
 51
0.0
  0
ARC
  8
0
  6
CONTINUOUS
 62
               3
  5
1A7
 10
29.5
 20
32.448053999999999
 30
0.0
 40
0.5
 50
0.0
 51
42.491934000000008
  0
LINE
  8
0
  6
CONTINUOUS
 62
               3
  5
1A8
 10
30.0
 20
12.99039
 30
0.0
 11
30.0
 21
12.851946
 31
0.0
  0
LINE
  8
0
  6
CONTINUOUS
 62
               3
  5
1A9
 10
30.0
 20
19.990390000000001
 30
0.0
 11
30.0
 21
19.809609999999999
 31
0.0
  0
LINE
  8
0
  6
CONTINUOUS
 62
               3
  5
1AA
 10
30.0
 20
26.948053999999999
 30
0.0
 11
30.0
 21
26.809609999999999
 31
0.0
  0
LINE
  8
0
  6
CONTINUOUS
 62
               3
  5
1AB
 10
30.0
 20
32.351945999999998
 30
0.0
 11
30.0
 21
32.448053999999999
 31
0.0
  0
LINE
  8
0
  6
CONTINUOUS
 62
               3
  5
1AC
 10
30.0
 20
7.448054
 30
0.0
 11
30.0
 21
7.3519459999999999
 31
0.0
  0
LINE
  8
0
  6
CONTINUOUS
 62
              80
  5
1AD
 10
-30.0
 20
2.1499999999999999
 30
0.0
 11
30.0
 21
2.1499999999999999
 31
0.0
  0
LINE
  8
0
  6
CONTINUOUS
 62
               3
  5
1AE
 10
30.0
 20
39.5
 30
0.0
 11
30.0
 21
37.649999999999999
 31
0.0
  0
LINE
  8
0
  6
CONTINUOUS
 62
               3
  5
1AF
 10
30.0
 20
2.1499999999999999
 30
0.0
 11
30.0
 21
0.5
 31
0.0
  0
ARC
  8
0
  6
CONTINUOUS
 62
               3
  5
1B0
 10
32.449489999999997
 20
4.6500000000000004
 30
0.0
 40
3.5
 50
137.50806600000001
 51
225.58469099999999
  0
ARC
  8
0
  6
CONTINUOUS
 62
               3
  5
1B1
 10
32.449489999999997
 20
10.15
 30
0.0
 40
3.5
 50
137.50806600000001
 51
222.49193399999999
  0
ARC
  8
0
  6
CONTINUOUS
 62
               3
  5
1B2
 10
32.449489999999997
 20
29.649999999999999
 30
0.0
 40
3.5
 50
137.50806600000001
 51
222.49193399999999
  0
ARC
  8
0
  6
CONTINUOUS
 62
               3
  5
1B3
 10
34.437060000000002
 20
23.399999999999999
 30
0.0
 40
5.5
 50
145.370441
 51
214.629559
  0
ARC
  8
0
  6
CONTINUOUS
 62
               3
  5
1B4
 10
34.437060000000002
 20
16.399999999999999
 30
0.0
 40
5.5
 50
145.370441
 51
214.629559
  0
ARC
  8
0
  6
CONTINUOUS
 62
               3
  5
1B5
 10
32.449489999999997
 20
35.149999999999999
 30
0.0
 40
3.5
 50
134.41530900000001
 51
222.49193399999999
  0
LINE
  8
0
  6
CONTINUOUS
 62
               3
  5
1B6
 10
-29.5
 20
40.0
 30
0.0
 11
29.5
 21
40.0
 31
0.0
  0
LINE
  8
0
  6
CONTINUOUS
 62
              80
  5
1B7
 10
-30.0
 20
7.4000000000000004
 30
0.0
 11
30.0
 21
7.4000000000000004
 31
0.0
  0
LINE
  8
0
  6
CONTINUOUS
 62
              80
  5
1B8
 10
-30.0
 20
12.856692000000001
 30
0.0
 11
30.0
 21
12.856692000000001
 31
0.0
  0
LINE
  8
0
  6
CONTINUOUS
 62
              80
  5
1B9
 10
-30.0
 20
19.899999999999999
 30
0.0
 11
30.0
 21
19.899999999999999
 31
0.0
  0
LINE
  8
0
  6
CONTINUOUS
 62
              80
  5
1BA
 10
-30.0
 20
26.943307999999998
 30
0.0
 11
30.0
 21
26.943307999999998
 31
0.0
  0
LINE
  8
0
  6
CONTINUOUS
 62
              80
  5
1BB
 10
-30.0
 20
32.399999999999999
 30
0.0
 11
29.997685000000001
 21
32.399999999999999
 31
0.0
  0
LINE
  8
0
  6
CONTINUOUS
 62
              80
  5
1BC
 10
-30.0
 20
37.649999999999999
 30
0.0
 11
29.997685000000001
 21
37.649999999999999
 31
0.0
  0
LINE
  8
0
  6
CONTINUOUS
 62
              80
  5
1BD
 10
26.336136
 20
5.0
 30
0.0
 11
25.760119
 21
38.0
 31
0.0
  0
LINE
  8
0
  6
CONTINUOUS
 62
              80
  5
1BE
 10
23.172806999999999
 20
38.0
 30
0.0
 11
23.172806999999999
 21
5.0
 31
0.0
  0
LINE
  8
0
  6
CONTINUOUS
 62
              80
  5
1BF
 10
21.647396000000001
 20
38.0
 30
0.0
 11
21.647396000000001
 21
5.0
 31
0.0
  0
LINE
  8
0
  6
CONTINUOUS
 62
              80
  5
1C0
 10
19.884810999999999
 20
38.0
 30
0.0
 11
19.884810999999999
 21
5.0
 31
0.0
  0
LINE
  8
0
  6
CONTINUOUS
 62
              80
  5
1C1
 10
17.904364000000001
 20
38.0
 30
0.0
 11
17.904364000000001
 21
5.0
 31
0.0
  0
LINE
  8
0
  6
CONTINUOUS
 62
              80
  5
1C2
 10
15.727753
 20
38.0
 30
0.0
 11
15.727753
 21
5.0
 31
0.0
  0
LINE
  8
0
  6
CONTINUOUS
 62
              80
  5
1C3
 10
13.378826
 20
38.0
 30
0.0
 11
13.378826
 21
5.0
 31
0.0
  0
LINE
  8
0
  6
CONTINUOUS
 62
              80
  5
1C4
 10
10.883317999999999
 20
38.0
 30
0.0
 11
10.883317999999999
 21
5.0
 31
0.0
  0
LINE
  8
0
  6
CONTINUOUS
 62
              80
  5
1C5
 10
8.2685689999999994
 20
38.0
 30
0.0
 11
8.2685689999999994
 21
5.0
 31
0.0
  0
LINE
  8
0
  6
CONTINUOUS
 62
              80
  5
1C6
 10
5.5632279999999996
 20
38.0
 30
0.0
 11
5.5632279999999996
 21
5.0
 31
0.0
  0
LINE
  8
0
  6
CONTINUOUS
 62
              80
  5
1C7
 10
2.857888
 20
38.0
 30
0.0
 11
2.857888
 21
5.0
 31
0.0
  0
LINE
  8
0
  6
CONTINUOUS
 62
              80
  5
1C8
 10
25.448039999999999
 20
38.0
 30
0.0
 11
25.448039999999999
 21
5.0
 31
0.0
  0
LINE
  8
0
  6
CONTINUOUS
 62
              80
  5
1C9
 10
24.444331999999999
 20
38.0
 30
0.0
 11
24.444331999999999
 21
5.0
 31
0.0
  0
LINE
  8
0
  6
CONTINUOUS
 62
              80
  5
1CA
 10
-25.448041
 20
38.0
 30
0.0
 11
-25.448041
 21
5.0
 31
0.0
  0
LINE
  8
0
  6
CONTINUOUS
 62
              80
  5
1CB
 10
-24.444333
 20
38.0
 30
0.0
 11
-24.444333
 21
5.0
 31
0.0
  0
LINE
  8
0
  6
CONTINUOUS
 62
              80
  5
1CC
 10
-23.172808
 20
38.0
 30
0.0
 11
-23.172808
 21
5.0
 31
0.0
  0
LINE
  8
0
  6
CONTINUOUS
 62
              80
  5
1CD
 10
-21.647396000000001
 20
38.0
 30
0.0
 11
-21.647396000000001
 21
5.0
 31
0.0
  0
LINE
  8
0
  6
CONTINUOUS
 62
              80
  5
1CE
 10
-19.884812
 20
38.0
 30
0.0
 11
-19.884812
 21
5.0
 31
0.0
  0
LINE
  8
0
  6
CONTINUOUS
 62
              80
  5
1CF
 10
-17.904364999999999
 20
38.0
 30
0.0
 11
-17.904364999999999
 21
5.0
 31
0.0
  0
LINE
  8
0
  6
CONTINUOUS
 62
              80
  5
1D0
 10
-15.727753999999999
 20
38.0
 30
0.0
 11
-15.727753999999999
 21
5.0
 31
0.0
  0
LINE
  8
0
  6
CONTINUOUS
 62
              80
  5
1D1
 10
-13.378826999999999
 20
38.0
 30
0.0
 11
-13.378826999999999
 21
5.0
 31
0.0
  0
LINE
  8
0
  6
CONTINUOUS
 62
              80
  5
1D2
 10
-10.883317999999999
 20
38.0
 30
0.0
 11
-10.883317999999999
 21
5.0
 31
0.0
  0
LINE
  8
0
  6
CONTINUOUS
 62
              80
  5
1D3
 10
-8.2685700000000004
 20
38.0
 30
0.0
 11
-8.2685700000000004
 21
5.0
 31
0.0
  0
LINE
  8
0
  6
CONTINUOUS
 62
              80
  5
1D4
 10
-5.5632289999999998
 20
38.0
 30
0.0
 11
-5.5632289999999998
 21
5.0
 31
0.0
  0
LINE
  8
0
  6
CONTINUOUS
 62
              80
  5
1D5
 10
-26.336137000000001
 20
5.0
 30
0.0
 11
-25.760120000000001
 21
38.0
 31
0.0
  0
LINE
  8
0
  6
CONTINUOUS
 62
              80
  5
1D6
 10
-2.8578890000000001
 20
38.0
 30
0.0
 11
-2.8578890000000001
 21
5.0
 31
0.0
  0
LINE
  8
0
  6
CONTINUOUS
 62
              80
  5
1D7
 10
0.0
 20
38.0
 30
0.0
 11
0.0
 21
5.0
 31
0.0
  0
LINE
  8
0
  6
CONTINUOUS
 62
               3
  5
1D8
 10
-30.0
 20
0.499999
 30
0.0
 11
-29.500001000000001
 21
0.0
 31
0.0
  0
LINE
  8
0
  6
CONTINUOUS
 62
               3
  5
1D9
 10
30.0
 20
0.499999
 30
0.0
 11
29.500001000000001
 21
0.0
 31
0.0
  0
ENDBLK
  8
0
  5
1DA
  0
BLOCK
  8
0
  5
1DB
  2
MS_6
 70
               0
 10
0.0
 20
0.0
 30
0.0
  3
MS_6
  0
ARC
  8
0
  6
CONTINUOUS
 62
               3
  5
1DC
 10
-23.883081000000001
 20
3.6459220000000001
 30
0.0
 40
6.0
 50
105.046254
 51
178.99999700000001
  0
ARC
  8
0
  6
CONTINUOUS
 62
               3
  5
1DD
 10
23.883082000000002
 20
3.6459220000000001
 30
0.0
 40
6.0
 50
1.0
 51
74.953744999999998
  0
ARC
  8
0
  6
CONTINUOUS
 62
               3
  5
1DE
 10
0.0
 20
-85.200001
 30
0.0
 40
98.0
 50
74.953747000000007
 51
105.046254
  0
LINE
  8
0
  6
CONTINUOUS
 62
               3
  5
1DF
 10
-29.991271999999999
 20
0.499924
 30
0.0
 11
-29.882166000000002
 21
3.7506360000000001
 31
0.0
  0
LINE
  8
0
  6
CONTINUOUS
 62
               3
  5
1E0
 10
-29.991274000000001
 20
0.499924
 30
0.0
 11
-29.508503000000001
 21
0.0
 31
0.0
  0
LINE
  8
0
  6
CONTINUOUS
 62
               3
  5
1E1
 10
29.991273
 20
0.499924
 30
0.0
 11
29.882166999999999
 21
3.7506360000000001
 31
0.0
  0
LINE
  8
0
  6
CONTINUOUS
 62
               3
  5
1E2
 10
29.991275000000002
 20
0.499924
 30
0.0
 11
29.508503999999999
 21
0.0
 31
0.0
  0
LINE
  8
0
  6
CONTINUOUS
 62
               3
  5
1E3
 10
-29.508503000000001
 20
0.0
 30
0.0
 11
29.508503000000001
 21
0.0
 31
0.0
  0
ENDBLK
  8
0
  5
1E4
  0
BLOCK
  8
0
  5
1E5
  2
MS_7
 70
               0
 10
0.0
 20
0.0
 30
0.0
  3
MS_7
  0
ARC
  8
0
  6
CONTINUOUS
 62
              80
  5
1E6
 10
0.0
 20
0.0
 30
0.0
 40
2.8999999999999999
 50
350.07180899999997
 51
9.9281909999999893
  0
ARC
  8
0
  6
CONTINUOUS
 62
              80
  5
1E7
 10
0.0
 20
0.0
 30
0.0
 40
2.8999999999999999
 50
260.07180899999997
 51
279.92819100000003
  0
ARC
  8
0
  6
CONTINUOUS
 62
              80
  5
1E8
 10
0.0
 20
0.0
 30
0.0
 40
2.8999999999999999
 50
170.071809
 51
189.928191
  0
ARC
  8
0
  6
CONTINUOUS
 62
              80
  5
1E9
 10
0.0
 20
0.0
 30
0.0
 40
2.8999999999999999
 50
80.071809000000016
 51
99.928190999999998
  0
CIRCLE
  8
0
  6
CONTINUOUS
 62
               3
  5
1EA
 10
0.0
 20
0.0
 30
0.0
 40
3.8999999999999999
  0
CIRCLE
  8
0
  6
CONTINUOUS
 62
               3
  5
1EB
 10
0.0
 20
0.0
 30
0.0
 40
4.2999999999999998
  0
LINE
  8
0
  6
CONTINUOUS
 62
              80
  5
1EC
 10
0.5
 20
0.5
 30
0.0
 11
2.8565719999999999
 21
0.5
 31
0.0
  0
LINE
  8
0
  6
CONTINUOUS
 62
              80
  5
1ED
 10
0.5
 20
-0.5
 30
0.0
 11
0.5
 21
-2.8565719999999999
 31
0.0
  0
LINE
  8
0
  6
CONTINUOUS
 62
              80
  5
1EE
 10
0.5
 20
-0.5
 30
0.0
 11
2.8565719999999999
 21
-0.5
 31
0.0
  0
LINE
  8
0
  6
CONTINUOUS
 62
              80
  5
1EF
 10
-0.5
 20
-0.5
 30
0.0
 11
-0.5
 21
-2.8565719999999999
 31
0.0
  0
LINE
  8
0
  6
CONTINUOUS
 62
              80
  5
1F0
 10
-2.8565719999999999
 20
-0.5
 30
0.0
 11
-0.5
 21
-0.5
 31
0.0
  0
LINE
  8
0
  6
CONTINUOUS
 62
              80
  5
1F1
 10
-2.8565719999999999
 20
0.5
 30
0.0
 11
-0.5
 21
0.5
 31
0.0
  0
LINE
  8
0
  6
CONTINUOUS
 62
              80
  5
1F2
 10
0.5
 20
2.8565719999999999
 30
0.0
 11
0.5
 21
0.5
 31
0.0
  0
LINE
  8
0
  6
CONTINUOUS
 62
              80
  5
1F3
 10
-0.5
 20
2.8565719999999999
 30
0.0
 11
-0.5
 21
0.5
 31
0.0
  0
CIRCLE
  8
0
  6
CONTINUOUS
 62
               3
  5
1F4
 10
0.0
 20
0.0
 30
0.0
 40
30.0
  0
ENDBLK
  8
0
  5
1F5
  0
BLOCK
  8
0
  5
1F6
  2
MS_8
 70
               0
 10
0.0
 20
0.0
 30
0.0
  3
MS_8
  0
CIRCLE
  8
0
  6
CONTINUOUS
 62
               3
  5
1F7
 10
0.0
 20
0.0
 30
0.0
 40
32.0
  0
CIRCLE
  8
0
  6
CONTINUOUS
 62
               3
  5
1F8
 10
0.0
 20
0.0
 30
0.0
 40
7.5
  0
CIRCLE
  8
0
  6
CONTINUOUS
 62
               3
  5
1F9
 10
17.320508
 20
10.0
 30
0.0
 40
2.0
  0
CIRCLE
  8
0
  6
CONTINUOUS
 62
               3
  5
1FA
 10
-17.320508
 20
10.0
 30
0.0
 40
2.0
  0
CIRCLE
  8
0
  6
CONTINUOUS
 62
               3
  5
1FB
 10
0.0
 20
-20.0
 30
0.0
 40
2.0
  0
LINE
  8
0
  6
CONTINUOUS
 62
               3
  5
1FC
 10
19.341234
 20
13.5
 30
0.0
 11
21.36196
 21
10.0
 31
0.0
  0
LINE
  8
0
  6
CONTINUOUS
 62
               3
  5
1FD
 10
21.36196
 20
10.0
 30
0.0
 11
19.341234
 21
6.5
 31
0.0
  0
CIRCLE
  8
0
  6
CONTINUOUS
 62
               3
  5
1FE
 10
17.320508
 20
10.0
 30
0.0
 40
5.0
  0
LINE
  8
0
  6
CONTINUOUS
 62
               3
  5
1FF
 10
15.299782
 20
6.5
 30
0.0
 11
19.341234
 21
6.5
 31
0.0
  0
LINE
  8
0
  6
CONTINUOUS
 62
               3
  5
200
 10
15.299782
 20
13.5
 30
0.0
 11
19.341234
 21
13.5
 31
0.0
  0
LINE
  8
0
  6
CONTINUOUS
 62
               3
  5
201
 10
13.279056000000001
 20
10.0
 30
0.0
 11
15.299782
 21
6.5
 31
0.0
  0
LINE
  8
0
  6
CONTINUOUS
 62
               3
  5
202
 10
15.299782
 20
13.5
 30
0.0
 11
13.279056000000001
 21
10.0
 31
0.0
  0
LINE
  8
0
  6
CONTINUOUS
 62
               3
  5
203
 10
-15.299782
 20
6.5
 30
0.0
 11
-13.279056000000001
 21
10.0
 31
0.0
  0
LINE
  8
0
  6
CONTINUOUS
 62
               3
  5
204
 10
-13.279056000000001
 20
10.0
 30
0.0
 11
-15.299782
 21
13.5
 31
0.0
  0
CIRCLE
  8
0
  6
CONTINUOUS
 62
               3
  5
205
 10
-17.320508
 20
10.0
 30
0.0
 40
5.0
  0
LINE
  8
0
  6
CONTINUOUS
 62
               3
  5
206
 10
-21.36196
 20
10.0
 30
0.0
 11
-19.341234
 21
13.5
 31
0.0
  0
LINE
  8
0
  6
CONTINUOUS
 62
               3
  5
207
 10
-19.341234
 20
13.5
 30
0.0
 11
-15.299782
 21
13.5
 31
0.0
  0
LINE
  8
0
  6
CONTINUOUS
 62
               3
  5
208
 10
-19.341234
 20
6.5
 30
0.0
 11
-21.36196
 21
10.0
 31
0.0
  0
LINE
  8
0
  6
CONTINUOUS
 62
               3
  5
209
 10
-19.341234
 20
6.5
 30
0.0
 11
-15.299782
 21
6.5
 31
0.0
  0
LINE
  8
0
  6
CONTINUOUS
 62
               3
  5
20A
 10
2.0207259999999998
 20
-16.5
 30
0.0
 11
-2.0207259999999998
 21
-16.5
 31
0.0
  0
LINE
  8
0
  6
CONTINUOUS
 62
               3
  5
20B
 10
-2.0207259999999998
 20
-16.5
 30
0.0
 11
-4.0414519999999996
 21
-20.0
 31
0.0
  0
CIRCLE
  8
0
  6
CONTINUOUS
 62
               3
  5
20C
 10
0.0
 20
-20.0
 30
0.0
 40
5.0
  0
LINE
  8
0
  6
CONTINUOUS
 62
               3
  5
20D
 10
4.0414519999999996
 20
-20.0
 30
0.0
 11
2.0207259999999998
 21
-16.5
 31
0.0
  0
LINE
  8
0
  6
CONTINUOUS
 62
               3
  5
20E
 10
4.0414519999999996
 20
-20.0
 30
0.0
 11
2.0207259999999998
 21
-23.5
 31
0.0
  0
LINE
  8
0
  6
CONTINUOUS
 62
               3
  5
20F
 10
2.0207259999999998
 20
-23.5
 30
0.0
 11
-2.0207259999999998
 21
-23.5
 31
0.0
  0
LINE
  8
0
  6
CONTINUOUS
 62
               3
  5
210
 10
-2.0207259999999998
 20
-23.5
 30
0.0
 11
-4.0414519999999996
 21
-20.0
 31
0.0
  0
ENDBLK
  8
0
  5
211
  0
BLOCK
  8
0
  5
212
  2
MS_9
 70
               0
 10
0.0
 20
0.0
 30
0.0
  3
MS_9
  0
LINE
  8
0
  6
CONTINUOUS
 62
               3
  5
213
 10
-9.7999991185302235
 20
-43.199809720511411
 30
0.0
 11
9.8000008814696855
 21
-43.199809720511411
 31
0.0
  0
LINE
  8
0
  6
CONTINUOUS
 62
               3
  5
214
 10
-3.5423974042671773
 20
-48.499809720509091
 30
0.0
 11
3.5423991672066393
 21
-48.499809720509091
 31
0.0
  0
LINE
  8
0
  6
CONTINUOUS
 62
               3
  5
215
 10
-5.7883188932835594
 20
-47.899809720511456
 30
0.0
 11
-7.6940615426711076
 21
-47.899809720511456
 31
0.0
  0
LINE
  8
0
  6
CONTINUOUS
 62
               3
  5
216
 10
-5.788318893283332
 20
-47.899809720511797
 30
0.0
 11
-5.7411902179772198
 21
-45.199809720511411
 31
0.0
  0
LINE
  8
0
  6
CONTINUOUS
 62
               3
  5
217
 10
-7.6940615426711076
 20
-47.899809720511115
 30
0.0
 11
-7.7411902179772198
 21
-45.199809720511183
 31
0.0
  0
LINE
  8
0
  6
CONTINUOUS
 62
               3
  5
218
 10
5.7883206562230214
 20
-47.899809720511456
 30
0.0
 11
7.6940633056105696
 21
-47.899809720511456
 31
0.0
  0
LINE
  8
0
  6
CONTINUOUS
 62
               3
  5
219
 10
5.7883206562230214
 20
-47.899809720511684
 30
0.0
 11
5.7411919809166818
 21
-45.199809720511752
 31
0.0
  0
LINE
  8
0
  6
CONTINUOUS
 62
               3
  5
21A
 10
7.694063305610797
 20
-47.899809720511229
 30
0.0
 11
7.7411919809169092
 21
-45.199809720511297
 31
0.0
  0
LINE
  8
0
  6
CONTINUOUS
 62
               3
  5
21B
 10
3.6000008814698674
 20
-45.199809720511297
 30
0.0
 11
3.5423991672068667
 21
-48.499809720509091
 31
0.0
  0
LINE
  8
0
  6
CONTINUOUS
 62
               3
  5
21C
 10
-3.5999991185301781
 20
-45.199809720511183
 30
0.0
 11
-3.5423974042671773
 21
-48.499809720508864
 31
0.0
  0
LINE
  8
0
  6
CONTINUOUS
 62
               3
  5
21D
 10
-9.7650889886738526
 20
-45.199809720511411
 30
0.0
 11
9.7650907516133145
 21
-45.199809720511411
 31
0.0
  0
LINE
  8
0
  6
CONTINUOUS
 62
               3
  5
21E
 10
-10.91238770348312
 20
-49.013655
 30
0.0
 11
-10.91238770348312
 21
-42.999809720511365
 31
0.0
  0
LINE
  8
0
  6
CONTINUOUS
 62
               3
  5
21F
 10
10.912389466422582
 20
-49.013655
 30
0.0
 11
10.912389466422582
 21
-42.999809720511365
 31
0.0
  0
LINE
  8
0
  6
CONTINUOUS
 62
               3
  5
220
 10
-0.999999118530269
 20
-48.499809720509091
 30
0.0
 11
-0.999999118530269
 21
-49.013655
 31
0.0
  0
LINE
  8
0
  6
CONTINUOUS
 62
               3
  5
221
 10
1.000000881469731
 20
-48.499809720509091
 30
0.0
 11
1.000000881469731
 21
-49.013655
 31
0.0
  0
LINE
  8
0
  6
CONTINUOUS
 62
               3
  5
222
 10
-3.6807308711638882
 20
-43.199809720510842
 30
0.0
 11
-3.6565117594480228
 21
-45.199809720510956
 31
0.0
  0
LINE
  8
0
  6
CONTINUOUS
 62
               3
  5
223
 10
-2.0476488159897883
 20
-43.199809720511411
 30
0.0
 11
-2.0286356416820865
 21
-45.199809720511411
 31
0.0
  0
LINE
  8
0
  6
CONTINUOUS
 62
               3
  5
224
 10
-0.160691916162051
 20
-43.199809720511297
 30
0.0
 11
-0.1474623849433385
 21
-45.199809720511297
 31
0.0
  0
LINE
  8
0
  6
CONTINUOUS
 62
               3
  5
225
 10
7.7288693007960489
 20
-43.199809720511297
 30
0.0
 11
7.6939644843084523
 21
-45.199809720511411
 31
0.0
  0
LINE
  8
0
  6
CONTINUOUS
 62
               3
  5
226
 10
6.5651629731675882
 20
-43.199809720511638
 30
0.0
 11
6.5328754632634798
 21
-45.199809720511411
 31
0.0
  0
LINE
  8
0
  6
CONTINUOUS
 62
               3
  5
227
 10
5.2019775175153598
 20
-43.199809720511411
 30
0.0
 11
5.1732883538449812
 21
-45.199809720511183
 31
0.0
  0
LINE
  8
0
  6
CONTINUOUS
 62
               3
  5
228
 10
3.680732634104487
 20
-43.199809720510729
 30
0.0
 11
3.6565135223883942
 21
-45.199809720510842
 31
0.0
  0
LINE
  8
0
  6
CONTINUOUS
 62
               3
  5
229
 10
2.0476505789290229
 20
-43.199809720511411
 30
0.0
 11
2.0286374046215485
 21
-45.199809720511183
 31
0.0
  0
LINE
  8
0
  6
CONTINUOUS
 62
               3
  5
22A
 10
9.8000008814699129
 20
-43.199809720511183
 30
0.0
 11
9.7650907516133145
 21
-45.199809720511183
 31
0.0
  0
LINE
  8
0
  6
CONTINUOUS
 62
               3
  5
22B
 10
8.6577378724993821
 20
-43.199809720511297
 30
0.0
 11
8.6212763146145051
 21
-45.199809720511411
 31
0.0
  0
LINE
  8
0
  6
CONTINUOUS
 62
               3
  5
22C
 10
9.3235454867560463
 20
-43.199809720511524
 30
0.0
 11
9.2866350534597757
 21
-45.199809720511297
 31
0.0
  0
LINE
  8
0
  6
CONTINUOUS
 62
               3
  5
22D
 10
9.706061916122934
 20
-43.199809720510729
 30
0.0
 11
9.669824112253508
 21
-45.199809720510842
 31
0.0
  0
LINE
  8
0
  6
CONTINUOUS
 62
               3
  5
22E
 10
-9.7999991185302235
 20
-43.199809720510956
 30
0.0
 11
-9.7650889886738526
 21
-45.199809720510956
 31
0.0
  0
LINE
  8
0
  6
CONTINUOUS
 62
               3
  5
22F
 10
-9.7060601531827899
 20
-43.199809720510842
 30
0.0
 11
-9.6698223493133639
 21
-45.19980972051107
 31
0.0
  0
LINE
  8
0
  6
CONTINUOUS
 62
               3
  5
230
 10
-9.3235437238161296
 20
-43.199809720511183
 30
0.0
 11
-9.286633290519859
 21
-45.199809720511183
 31
0.0
  0
LINE
  8
0
  6
CONTINUOUS
 62
               3
  5
231
 10
-8.6577361095590106
 20
-43.199809720511183
 30
0.0
 11
-8.6212745516741336
 21
-45.199809720511297
 31
0.0
  0
LINE
  8
0
  6
CONTINUOUS
 62
               3
  5
232
 10
-7.7288675378556775
 20
-43.199809720510956
 30
0.0
 11
-7.6939627213680808
 21
-45.199809720511183
 31
0.0
  0
LINE
  8
0
  6
CONTINUOUS
 62
               3
  5
233
 10
-6.5651612102276715
 20
-43.199809720511752
 30
0.0
 11
-6.5328737003235631
 21
-45.199809720511524
 31
0.0
  0
LINE
  8
0
  6
CONTINUOUS
 62
               3
  5
234
 10
-5.2019757545756704
 20
-43.19980972051107
 30
0.0
 11
-5.1732865909050645
 21
-45.199809720511297
 31
0.0
  0
LINE
  8
0
  6
CONTINUOUS
 62
               3
  5
235
 10
0.1606936791019678
 20
-43.199809720511297
 30
0.0
 11
0.1474641478830279
 21
-45.199809720511411
 31
0.0
  0
LINE
  8
0
  6
CONTINUOUS
 62
               3
  5
236
 10
32.000000999999997
 20
-54.799999999999997
 30
0.0
 11
-31.999998999999999
 21
-54.799999999999997
 31
0.0
  0
LINE
  8
0
  6
CONTINUOUS
 62
               3
  5
237
 10
-29.499998999999999
 20
-40.0
 30
0.0
 11
-29.999998999999999
 21
-40.5
 31
0.0
  0
LINE
  8
0
  6
CONTINUOUS
 62
               3
  5
238
 10
28.700001
 20
-49.013655
 30
0.0
 11
28.700001
 21
-42.999809999999997
 31
0.0
  0
LINE
  8
0
  6
CONTINUOUS
 62
               3
  5
239
 10
29.500001000000001
 20
-40.0
 30
0.0
 11
30.000001000000001
 21
-40.5
 31
0.0
  0
LINE
  8
0
  6
CONTINUOUS
 62
               3
  5
23A
 10
-28.699999999999999
 20
-42.999809999999997
 30
0.0
 11
29.000001000000001
 21
-42.999809999999997
 31
0.0
  0
LINE
  8
0
  6
CONTINUOUS
 62
               3
  5
23B
 10
30.000001000000001
 20
-54.299999999999997
 30
0.0
 11
30.000001000000001
 21
-50.013617000000004
 31
0.0
  0
LINE
  8
0
  6
CONTINUOUS
 62
               3
  5
23C
 10
-28.699999999999999
 20
-42.999809999999997
 30
0.0
 11
-28.999998999999999
 21
-42.999809999999997
 31
0.0
  0
LINE
  8
0
  6
CONTINUOUS
 62
               3
  5
23D
 10
-28.699999999999999
 20
-49.013655
 30
0.0
 11
29.000001000000001
 21
-49.013655
 31
0.0
  0
LINE
  8
0
  6
CONTINUOUS
 62
               3
  5
23E
 10
30.000001000000001
 20
-41.999809999999997
 30
0.0
 11
30.000001000000001
 21
-40.5
 31
0.0
  0
LINE
  8
0
  6
CONTINUOUS
 62
               3
  5
23F
 10
-28.699999999999999
 20
-49.013655
 30
0.0
 11
-28.999998999999999
 21
-49.013655
 31
0.0
  0
LINE
  8
0
  6
CONTINUOUS
 62
               3
  5
240
 10
-29.999998999999999
 20
-54.299999999999997
 30
0.0
 11
-29.999998999999999
 21
-50.013617000000004
 31
0.0
  0
LINE
  8
0
  6
CONTINUOUS
 62
               3
  5
241
 10
-28.699999999999999
 20
-49.013655
 30
0.0
 11
-28.699999999999999
 21
-42.999809999999997
 31
0.0
  0
LINE
  8
0
  6
CONTINUOUS
 62
               3
  5
242
 10
-29.999998999999999
 20
-41.999809999999997
 30
0.0
 11
-29.999998999999999
 21
-40.5
 31
0.0
  0
LINE
  8
0
  6
CONTINUOUS
 62
               3
  5
243
 10
-29.499998999999999
 20
-54.799999999999997
 30
0.0
 11
-30.0
 21
-54.299999
 31
0.0
  0
LINE
  8
0
  6
CONTINUOUS
 62
               3
  5
244
 10
30.000001000000001
 20
-54.299999999999997
 30
0.0
 11
29.5
 21
-54.799999999999997
 31
0.0
  0
LINE
  8
0
  6
CONTINUOUS
 62
               3
  5
245
 10
29.5
 20
0.0
 30
0.0
 11
-29.5
 21
0.0
 31
0.0
  0
LINE
  8
0
  6
CONTINUOUS
 62
               3
  5
246
 10
-30.0
 20
-0.5
 30
0.0
 11
-30.0
 21
-39.5
 31
0.0
  0
LINE
  8
0
  6
CONTINUOUS
 62
               3
  5
247
 10
-30.0
 20
-39.500000999999997
 30
0.0
 11
-29.5
 21
-40.0
 31
0.0
  0
LINE
  8
0
  6
CONTINUOUS
 62
               3
  5
248
 10
-29.5
 20
0.0
 30
0.0
 11
-30.0
 21
-0.5
 31
0.0
  0
LINE
  8
0
  6
CONTINUOUS
 62
               3
  5
249
 10
29.5
 20
-40.0
 30
0.0
 11
-29.5
 21
-40.0
 31
0.0
  0
LINE
  8
0
  6
CONTINUOUS
 62
               3
  5
24A
 10
30.0
 20
-0.5
 30
0.0
 11
30.0
 21
-39.5
 31
0.0
  0
LINE
  8
0
  6
CONTINUOUS
 62
               3
  5
24B
 10
30.0
 20
-39.500000999999997
 30
0.0
 11
29.500001000000001
 21
-40.0
 31
0.0
  0
LINE
  8
0
  6
CONTINUOUS
 62
               3
  5
24C
 10
29.5
 20
0.0
 30
0.0
 11
30.0
 21
-0.5
 31
0.0
  0
LINE
  8
0
  6
CONTINUOUS
 62
               3
  5
24D
 10
-31.999998999999999
 20
-54.799999999999997
 30
0.0
 11
-31.999998999999999
 21
-56.799999999999997
 31
0.0
  0
LINE
  8
0
  6
CONTINUOUS
 62
               3
  5
24E
 10
32.000000999999997
 20
-54.799999999999997
 30
0.0
 11
32.000000999999997
 21
-56.799999999999997
 31
0.0
  0
LINE
  8
0
  6
CONTINUOUS
 62
               3
  5
24F
 10
-31.999998999999999
 20
-56.799999999999997
 30
0.0
 11
32.000000999999997
 21
-56.799999999999997
 31
0.0
  0
LINE
  8
0
  6
CONTINUOUS
 62
               3
  5
250
 10
13.279057
 20
-58.956693000000001
 30
0.0
 11
13.896867
 21
-58.600000000000001
 31
0.0
  0
LINE
  8
0
  6
CONTINUOUS
 62
               3
  5
251
 10
-20.744149
 20
-61.799999999999997
 30
0.0
 11
-13.896865999999999
 21
-61.799999999999997
 31
0.0
  0
LINE
  8
0
  6
CONTINUOUS
 62
               3
  5
252
 10
-21.361958999999999
 20
-58.956693000000001
 30
0.0
 11
-21.361958999999999
 21
-61.443306999999997
 31
0.0
  0
LINE
  8
0
  6
CONTINUOUS
 62
              80
  5
253
 10
-19.341232999999999
 20
-59.004145000000001
 30
0.0
 11
-19.341232999999999
 21
-61.395854999999997
 31
0.0
  0
LINE
  8
0
  6
CONTINUOUS
 62
               3
  5
254
 10
-21.361958999999999
 20
-58.956693000000001
 30
0.0
 11
-20.744149
 21
-58.600000000000001
 31
0.0
  0
LINE
  8
0
  6
CONTINUOUS
 62
               3
  5
255
 10
-21.361958999999999
 20
-61.443306999999997
 30
0.0
 11
-20.744149
 21
-61.799999999999997
 31
0.0
  0
LINE
  8
0
  6
CONTINUOUS
 62
               3
  5
256
 10
-13.279056000000001
 20
-58.956693000000001
 30
0.0
 11
-13.279056000000001
 21
-61.443306999999997
 31
0.0
  0
LINE
  8
0
  6
CONTINUOUS
 62
              80
  5
257
 10
-15.299782
 20
-59.004145000000001
 30
0.0
 11
-15.299782
 21
-61.395854999999997
 31
0.0
  0
LINE
  8
0
  6
CONTINUOUS
 62
               3
  5
258
 10
-13.279056000000001
 20
-58.956693000000001
 30
0.0
 11
-13.896865999999999
 21
-58.600000000000001
 31
0.0
  0
LINE
  8
0
  6
CONTINUOUS
 62
               3
  5
259
 10
-13.279056000000001
 20
-61.443306999999997
 30
0.0
 11
-13.896865999999999
 21
-61.799999999999997
 31
0.0
  0
LINE
  8
0
  6
CONTINUOUS
 62
               3
  5
25A
 10
-22.320508
 20
-57.600000000000001
 30
0.0
 11
-12.320508
 21
-57.600000000000001
 31
0.0
  0
LINE
  8
0
  6
CONTINUOUS
 62
               3
  5
25B
 10
-12.320508
 20
-56.799999999999997
 30
0.0
 11
-12.320508
 21
-57.600000000000001
 31
0.0
  0
LINE
  8
0
  6
CONTINUOUS
 62
               3
  5
25C
 10
-22.320508
 20
-56.799999999999997
 30
0.0
 11
-22.320508
 21
-57.600000000000001
 31
0.0
  0
LINE
  8
0
  6
CONTINUOUS
 62
               3
  5
25D
 10
-21.120508000000001
 20
-58.600000000000001
 30
0.0
 11
-13.520508
 21
-58.600000000000001
 31
0.0
  0
LINE
  8
0
  6
CONTINUOUS
 62
              80
  5
25E
 10
-17.820508
 20
-58.600000000000001
 30
0.0
 11
-16.820508
 21
-57.600000000000001
 31
0.0
  0
LINE
  8
0
  6
CONTINUOUS
 62
               3
  5
25F
 10
-13.520508
 20
-57.600000000000001
 30
0.0
 11
-13.520508
 21
-58.600000000000001
 31
0.0
  0
LINE
  8
0
  6
CONTINUOUS
 62
               3
  5
260
 10
-21.120508000000001
 20
-57.600000000000001
 30
0.0
 11
-21.120508000000001
 21
-58.600000000000001
 31
0.0
  0
LINE
  8
0
  6
CONTINUOUS
 62
               3
  5
261
 10
-18.820508
 20
-68.0
 30
0.0
 11
-15.820508
 21
-68.0
 31
0.0
  0
LINE
  8
0
  6
CONTINUOUS
 62
               3
  5
262
 10
-15.320508
 20
-61.799999999999997
 30
0.0
 11
-15.320508
 21
-67.5
 31
0.0
  0
LINE
  8
0
  6
CONTINUOUS
 62
               3
  5
263
 10
-19.320508
 20
-61.799999999999997
 30
0.0
 11
-19.320508
 21
-67.5
 31
0.0
  0
LINE
  8
0
  6
CONTINUOUS
 62
              80
  5
264
 10
-19.320508
 20
-67.5
 30
0.0
 11
-15.320508
 21
-67.5
 31
0.0
  0
LINE
  8
0
  6
CONTINUOUS
 62
              80
  5
265
 10
-18.820508
 20
-61.799999999999997
 30
0.0
 11
-18.820508
 21
-68.0
 31
0.0
  0
LINE
  8
0
  6
CONTINUOUS
 62
              80
  5
266
 10
-15.820508
 20
-61.799999999999997
 30
0.0
 11
-15.820508
 21
-68.0
 31
0.0
  0
LINE
  8
0
  6
CONTINUOUS
 62
               3
  5
267
 10
-19.320508
 20
-67.5
 30
0.0
 11
-18.820508
 21
-68.0
 31
0.0
  0
LINE
  8
0
  6
CONTINUOUS
 62
               3
  5
268
 10
-15.320508
 20
-67.5
 30
0.0
 11
-15.820508
 21
-68.0
 31
0.0
  0
LINE
  8
0
  6
CONTINUOUS
 62
              80
  5
269
 10
15.299783
 20
-59.004145000000001
 30
0.0
 11
15.299783
 21
-61.395854999999997
 31
0.0
  0
LINE
  8
0
  6
CONTINUOUS
 62
               3
  5
26A
 10
13.279057
 20
-58.956693000000001
 30
0.0
 11
13.279057
 21
-61.443306999999997
 31
0.0
  0
LINE
  8
0
  6
CONTINUOUS
 62
               3
  5
26B
 10
21.361961000000001
 20
-61.443306999999997
 30
0.0
 11
20.744150000000001
 21
-61.799999999999997
 31
0.0
  0
LINE
  8
0
  6
CONTINUOUS
 62
               3
  5
26C
 10
21.361961000000001
 20
-58.956693000000001
 30
0.0
 11
20.744150000000001
 21
-58.600000000000001
 31
0.0
  0
LINE
  8
0
  6
CONTINUOUS
 62
              80
  5
26D
 10
19.341235000000001
 20
-59.004145000000001
 30
0.0
 11
19.341235000000001
 21
-61.395854999999997
 31
0.0
  0
LINE
  8
0
  6
CONTINUOUS
 62
               3
  5
26E
 10
21.361961000000001
 20
-58.956693000000001
 30
0.0
 11
21.361961000000001
 21
-61.443306999999997
 31
0.0
  0
LINE
  8
0
  6
CONTINUOUS
 62
               3
  5
26F
 10
13.279057
 20
-61.443306999999997
 30
0.0
 11
13.896867
 21
-61.799999999999997
 31
0.0
  0
LINE
  8
0
  6
CONTINUOUS
 62
               3
  5
270
 10
22.320509000000001
 20
-57.600000000000001
 30
0.0
 11
12.320508999999999
 21
-57.600000000000001
 31
0.0
  0
LINE
  8
0
  6
CONTINUOUS
 62
               3
  5
271
 10
12.320508999999999
 20
-56.799999999999997
 30
0.0
 11
12.320508999999999
 21
-57.600000000000001
 31
0.0
  0
LINE
  8
0
  6
CONTINUOUS
 62
               3
  5
272
 10
22.320509000000001
 20
-56.799999999999997
 30
0.0
 11
22.320509000000001
 21
-57.600000000000001
 31
0.0
  0
LINE
  8
0
  6
CONTINUOUS
 62
               3
  5
273
 10
21.120508999999998
 20
-58.600000000000001
 30
0.0
 11
13.520509000000001
 21
-58.600000000000001
 31
0.0
  0
LINE
  8
0
  6
CONTINUOUS
 62
              80
  5
274
 10
17.820509000000001
 20
-57.600000000000001
 30
0.0
 11
16.820509000000001
 21
-58.600000000000001
 31
0.0
  0
LINE
  8
0
  6
CONTINUOUS
 62
               3
  5
275
 10
13.520509000000001
 20
-57.600000000000001
 30
0.0
 11
13.520509000000001
 21
-58.600000000000001
 31
0.0
  0
LINE
  8
0
  6
CONTINUOUS
 62
               3
  5
276
 10
21.120508999999998
 20
-57.600000000000001
 30
0.0
 11
21.120508999999998
 21
-58.600000000000001
 31
0.0
  0
LINE
  8
0
  6
CONTINUOUS
 62
               3
  5
277
 10
18.820509000000001
 20
-68.0
 30
0.0
 11
15.820508999999999
 21
-68.0
 31
0.0
  0
LINE
  8
0
  6
CONTINUOUS
 62
               3
  5
278
 10
15.320508999999999
 20
-61.799999999999997
 30
0.0
 11
15.320508999999999
 21
-67.5
 31
0.0
  0
LINE
  8
0
  6
CONTINUOUS
 62
               3
  5
279
 10
19.320509000000001
 20
-61.799999999999997
 30
0.0
 11
19.320509000000001
 21
-67.5
 31
0.0
  0
LINE
  8
0
  6
CONTINUOUS
 62
              80
  5
27A
 10
19.320509000000001
 20
-67.5
 30
0.0
 11
15.320508999999999
 21
-67.5
 31
0.0
  0
LINE
  8
0
  6
CONTINUOUS
 62
              80
  5
27B
 10
18.820509000000001
 20
-61.799999999999997
 30
0.0
 11
18.820509000000001
 21
-68.0
 31
0.0
  0
LINE
  8
0
  6
CONTINUOUS
 62
              80
  5
27C
 10
15.820508999999999
 20
-61.799999999999997
 30
0.0
 11
15.820508999999999
 21
-68.0
 31
0.0
  0
LINE
  8
0
  6
CONTINUOUS
 62
               3
  5
27D
 10
19.320509000000001
 20
-67.5
 30
0.0
 11
18.820509000000001
 21
-68.0
 31
0.0
  0
LINE
  8
0
  6
CONTINUOUS
 62
               3
  5
27E
 10
15.320508999999999
 20
-67.5
 30
0.0
 11
15.820508999999999
 21
-68.0
 31
0.0
  0
LINE
  8
0
  6
CONTINUOUS
 62
               3
  5
27F
 10
20.744150000000001
 20
-61.799999999999997
 30
0.0
 11
13.896867
 21
-61.799999999999997
 31
0.0
  0
ARC
  8
0
  6
CONTINUOUS
 62
               3
  5
280
 10
29.000001000000001
 20
-50.013617000000004
 30
0.0
 40
1.0
 50
0.0
 51
89.5
  0
ARC
  8
0
  6
CONTINUOUS
 62
               3
  5
281
 10
29.000001000000001
 20
-41.999809999999997
 30
0.0
 40
1.0
 50
270.5
 51
0.0
  0
ARC
  8
0
  6
CONTINUOUS
 62
               3
  5
282
 10
-28.999998999999999
 20
-50.013617000000004
 30
0.0
 40
1.0
 50
90.5
 51
180.0
  0
ARC
  8
0
  6
CONTINUOUS
 62
               3
  5
283
 10
-28.999998999999999
 20
-41.999809999999997
 30
0.0
 40
1.0
 50
180.0
 51
269.50000000000006
  0
ARC
  8
0
  6
CONTINUOUS
 62
              80
  5
284
 10
-20.351596000000001
 20
-60.065026000000003
 30
0.0
 40
1.4650259999999999
 50
46.397181000000003
 51
119.99999999999999
  0
ARC
  8
0
  6
CONTINUOUS
 62
              80
  5
285
 10
-20.351596000000001
 20
-60.334974000000003
 30
0.0
 40
1.4650259999999999
 50
239.99999999999997
 51
313.60281900000001
  0
ARC
  8
0
  6
CONTINUOUS
 62
              80
  5
286
 10
-14.289419000000001
 20
-60.065026000000003
 30
0.0
 40
1.4650259999999999
 50
59.999999999999993
 51
133.60281900000001
  0
ARC
  8
0
  6
CONTINUOUS
 62
              80
  5
287
 10
-14.289419000000001
 20
-60.334974000000003
 30
0.0
 40
1.4650259999999999
 50
226.39718099999999
 51
300.0
  0
ARC
  8
0
  6
CONTINUOUS
 62
              80
  5
288
 10
-17.320508
 20
-63.853887
 30
0.0
 40
5.2538869999999998
 50
67.380134999999996
 51
112.619865
  0
ARC
  8
0
  6
CONTINUOUS
 62
              80
  5
289
 10
-17.320508
 20
-56.546112999999998
 30
0.0
 40
5.2538869999999998
 50
247.38013499999997
 51
292.619865
  0
ARC
  8
0
  6
CONTINUOUS
 62
              80
  5
28A
 10
20.351597999999999
 20
-60.065026000000003
 30
0.0
 40
1.4650259999999999
 50
59.999999999999993
 51
133.60281900000001
  0
ARC
  8
0
  6
CONTINUOUS
 62
              80
  5
28B
 10
20.351597999999999
 20
-60.334974000000003
 30
0.0
 40
1.4650259999999999
 50
226.39718099999999
 51
300.0
  0
ARC
  8
0
  6
CONTINUOUS
 62
              80
  5
28C
 10
14.28942
 20
-60.065026000000003
 30
0.0
 40
1.4650259999999999
 50
46.397181000000003
 51
119.99999999999999
  0
ARC
  8
0
  6
CONTINUOUS
 62
              80
  5
28D
 10
14.28942
 20
-60.334974000000003
 30
0.0
 40
1.4650259999999999
 50
239.99999999999997
 51
313.60281900000001
  0
ARC
  8
0
  6
CONTINUOUS
 62
              80
  5
28E
 10
17.320509000000001
 20
-63.853887
 30
0.0
 40
5.2538869999999998
 50
67.380134999999996
 51
112.619865
  0
ARC
  8
0
  6
CONTINUOUS
 62
              80
  5
28F
 10
17.320509000000001
 20
-56.546112999999998
 30
0.0
 40
5.2538869999999998
 50
247.38013499999997
 51
292.619865
  0
ENDBLK
  8
0
  5
290
  0
BLOCK
  8
0
  6
BYBLOCK
 62
               0
  5
29
  2
_OPEN30
 70
               2
 10
0.0
 20
0.0
 30
0.0
  3
_OPEN30
  0
LINE
  8
0
  6
BYBLOCK
 62
               0
  5
2A
 10
-1.0
 20
0.267949
 30
0.0
 11
0.0
 21
0.0
 31
0.0
  0
LINE
  8
0
  6
BYBLOCK
 62
               0
  5
2B
 10
0.0
 20
0.0
 30
0.0
 11
-1.0
 21
-0.267949
 31
0.0
  0
LINE
  8
0
  6
BYBLOCK
 62
               0
  5
2C
 10
0.0
 20
0.0
 30
0.0
 11
-1.0
 21
0.0
 31
0.0
  0
ENDBLK
  8
0
  6
BYBLOCK
 62
               0
  5
2D
  0
ENDSEC
  0
SECTION
  2
ENTITIES
  0
INSERT
  8
LY_3
  6
BYBLOCK
  5
291
  2
MS_2
 10
242.543318
 20
108.534108
 30
0.0
  0
INSERT
  8
LY_3
  6
BYBLOCK
  5
292
  2
MS_7
 10
242.543318
 20
691.33410700000002
 30
0.0
  0
INSERT
  8
LY_3
  6
BYBLOCK
  5
293
  2
MS_8
 10
242.543319
 20
1219.7341080000001
 30
0.0
  0
INSERT
  8
LY_3
  6
BYBLOCK
  5
294
  2
MS_7
 10
242.543318
 20
1691.3341069999999
 30
0.0
  0
INSERT
  8
LY_3
  6
BYBLOCK
  5
295
  2
MS_2
 10
442.543318
 20
108.534108
 30
0.0
  0
INSERT
  8
LY_3
  6
BYBLOCK
  5
296
  2
MS_7
 10
442.543318
 20
691.33410700000002
 30
0.0
  0
INSERT
  8
LY_3
  6
BYBLOCK
  5
297
  2
MS_8
 10
442.543319
 20
1219.7341080000001
 30
0.0
  0
INSERT
  8
LY_3
  6
BYBLOCK
  5
298
  2
MS_7
 10
442.543318
 20
1691.3341069999999
 30
0.0
  0
INSERT
  8
LY_3
  6
BYBLOCK
  5
299
  2
MS_2
 10
642.543318
 20
108.534108
 30
0.0
  0
INSERT
  8
LY_3
  6
BYBLOCK
  5
29A
  2
MS_7
 10
642.543318
 20
691.33410700000002
 30
0.0
  0
INSERT
  8
LY_3
  6
BYBLOCK
  5
29B
  2
MS_8
 10
642.543319
 20
1219.7341080000001
 30
0.0
  0
INSERT
  8
LY_3
  6
BYBLOCK
  5
29C
  2
MS_7
 10
642.543318
 20
1691.3341069999999
 30
0.0
  0
INSERT
  8
LY_3
  6
BYBLOCK
  5
29D
  2
MS_2
 10
842.543318
 20
108.534108
 30
0.0
  0
INSERT
  8
LY_3
  6
BYBLOCK
  5
29E
  2
MS_7
 10
842.543318
 20
691.33410700000002
 30
0.0
  0
INSERT
  8
LY_3
  6
BYBLOCK
  5
29F
  2
MS_8
 10
842.543319
 20
1219.7341080000001
 30
0.0
  0
INSERT
  8
LY_3
  6
BYBLOCK
  5
2A0
  2
MS_7
 10
842.543318
 20
1691.3341069999999
 30
0.0
  0
INSERT
  8
LY_3
  6
BYBLOCK
  5
2A1
  2
MS_2
 10
1042.543318
 20
108.534108
 30
0.0
  0
INSERT
  8
LY_3
  6
BYBLOCK
  5
2A2
  2
MS_1
 10
1042.543318
 20
376.534108
 30
0.0
  0
INSERT
  8
LY_3
  6
BYBLOCK
  5
2A3
  2
MS_1
 10
842.543318
 20
376.534108
 30
0.0
  0
INSERT
  8
LY_3
  6
BYBLOCK
  5
2A4
  2
MS_1
 10
642.543318
 20
376.534108
 30
0.0
  0
INSERT
  8
LY_3
  6
BYBLOCK
  5
2A5
  2
MS_1
 10
442.543318
 20
376.534108
 30
0.0
  0
INSERT
  8
LY_3
  6
BYBLOCK
  5
2A6
  2
MS_1
 10
242.543318
 20
376.534108
 30
0.0
  0
INSERT
  8
LY_3
  6
BYBLOCK
  5
2A7
  2
MS_8
 10
1042.5433190000001
 20
1219.7341080000001
 30
0.0
  0
INSERT
  8
LY_3
  6
BYBLOCK
  5
2A8
  2
MS_9
 10
1042.543318
 20
1376.5341080000001
 30
0.0
  0
INSERT
  8
LY_3
  6
BYBLOCK
  5
2A9
  2
MS_9
 10
842.543318
 20
1376.5341080000001
 30
0.0
  0
INSERT
  8
LY_3
  6
BYBLOCK
  5
2AA
  2
MS_9
 10
642.543318
 20
1376.5341080000001
 30
0.0
  0
INSERT
  8
LY_3
  6
BYBLOCK
  5
2AB
  2
MS_9
 10
442.543318
 20
1376.5341080000001
 30
0.0
  0
INSERT
  8
LY_3
  6
BYBLOCK
  5
2AC
  2
MS_9
 10
242.543318
 20
1376.5341080000001
 30
0.0
  0
INSERT
  8
LY_3
  6
BYBLOCK
  5
2AD
  2
MS_5
 10
242.543318
 20
376.534108
 30
0.0
  0
INSERT
  8
LY_3
  6
BYBLOCK
  5
2AE
  2
MS_6
 10
242.543318
 20
416.534108
 30
0.0
  0
INSERT
  8
LY_3
  6
BYBLOCK
  5
2AF
  2
MS_6
 10
442.543318
 20
456.534108
 30
0.0
  0
INSERT
  8
LY_3
  6
BYBLOCK
  5
2B0
  2
MS_5
 10
442.543318
 20
416.534108
 30
0.0
  0
INSERT
  8
LY_3
  6
BYBLOCK
  5
2B1
  2
MS_5
 10
442.543318
 20
376.534108
 30
0.0
  0
INSERT
  8
LY_3
  6
BYBLOCK
  5
2B2
  2
MS_6
 10
642.543318
 20
496.534108
 30
0.0
  0
INSERT
  8
LY_3
  6
BYBLOCK
  5
2B3
  2
MS_5
 10
642.543318
 20
456.534108
 30
0.0
  0
INSERT
  8
LY_3
  6
BYBLOCK
  5
2B4
  2
MS_5
 10
642.543318
 20
416.534108
 30
0.0
  0
INSERT
  8
LY_3
  6
BYBLOCK
  5
2B5
  2
MS_5
 10
642.543318
 20
376.534108
 30
0.0
  0
INSERT
  8
LY_3
  6
BYBLOCK
  5
2B6
  2
MS_6
 10
842.543317
 20
536.53410799999995
 30
0.0
  0
INSERT
  8
LY_3
  6
BYBLOCK
  5
2B7
  2
MS_5
 10
842.543318
 20
496.534108
 30
0.0
  0
INSERT
  8
LY_3
  6
BYBLOCK
  5
2B8
  2
MS_5
 10
842.543318
 20
456.534108
 30
0.0
  0
INSERT
  8
LY_3
  6
BYBLOCK
  5
2B9
  2
MS_5
 10
842.543318
 20
416.534108
 30
0.0
  0
INSERT
  8
LY_3
  6
BYBLOCK
  5
2BA
  2
MS_5
 10
842.543318
 20
376.534108
 30
0.0
  0
INSERT
  8
LY_3
  6
BYBLOCK
  5
2BB
  2
MS_6
 10
1042.5433169999999
 20
576.53410799999995
 30
0.0
  0
INSERT
  8
LY_3
  6
BYBLOCK
  5
2BC
  2
MS_5
 10
1042.5433169999999
 20
536.53410799999995
 30
0.0
  0
INSERT
  8
LY_3
  6
BYBLOCK
  5
2BD
  2
MS_5
 10
1042.543318
 20
496.534108
 30
0.0
  0
INSERT
  8
LY_3
  6
BYBLOCK
  5
2BE
  2
MS_5
 10
1042.543318
 20
456.534108
 30
0.0
  0
INSERT
  8
LY_3
  6
BYBLOCK
  5
2BF
  2
MS_5
 10
1042.543318
 20
416.534108
 30
0.0
  0
INSERT
  8
LY_3
  6
BYBLOCK
  5
2C0
  2
MS_5
 10
1042.543318
 20
376.534108
 30
0.0
  0
INSERT
  8
LY_3
  6
BYBLOCK
  5
2C1
  2
MS_7
 10
1042.543318
 20
691.33410700000002
 30
0.0
  0
INSERT
  8
LY_3
  6
BYBLOCK
  5
2C2
  2
MS_7
 10
1042.543318
 20
1691.3341069999999
 30
0.0
  0
INSERT
  8
LY_3
  6
BYBLOCK
  5
2C3
  2
MS_6
 10
242.543318
 20
1416.5341080000001
 30
0.0
  0
INSERT
  8
LY_3
  6
BYBLOCK
  5
2C4
  2
MS_5
 10
1042.543318
 20
1376.5341080000001
 30
0.0
  0
INSERT
  8
LY_3
  6
BYBLOCK
  5
2C5
  2
MS_5
 10
1042.543318
 20
1416.5341080000001
 30
0.0
  0
INSERT
  8
LY_3
  6
BYBLOCK
  5
2C6
  2
MS_5
 10
1042.543318
 20
1456.5341080000001
 30
0.0
  0
INSERT
  8
LY_3
  6
BYBLOCK
  5
2C7
  2
MS_5
 10
1042.543318
 20
1496.5341080000001
 30
0.0
  0
INSERT
  8
LY_3
  6
BYBLOCK
  5
2C8
  2
MS_5
 10
1042.5433169999999
 20
1536.5341080000001
 30
0.0
  0
INSERT
  8
LY_3
  6
BYBLOCK
  5
2C9
  2
MS_6
 10
1042.5433169999999
 20
1576.5341080000001
 30
0.0
  0
INSERT
  8
LY_3
  6
BYBLOCK
  5
2CA
  2
MS_5
 10
842.543318
 20
1376.5341080000001
 30
0.0
  0
INSERT
  8
LY_3
  6
BYBLOCK
  5
2CB
  2
MS_5
 10
842.543318
 20
1416.5341080000001
 30
0.0
  0
INSERT
  8
LY_3
  6
BYBLOCK
  5
2CC
  2
MS_5
 10
842.543318
 20
1456.5341080000001
 30
0.0
  0
INSERT
  8
LY_3
  6
BYBLOCK
  5
2CD
  2
MS_5
 10
842.543318
 20
1496.5341080000001
 30
0.0
  0
INSERT
  8
LY_3
  6
BYBLOCK
  5
2CE
  2
MS_6
 10
842.543317
 20
1536.5341080000001
 30
0.0
  0
INSERT
  8
LY_3
  6
BYBLOCK
  5
2CF
  2
MS_5
 10
642.543318
 20
1376.5341080000001
 30
0.0
  0
INSERT
  8
LY_3
  6
BYBLOCK
  5
2D0
  2
MS_5
 10
642.543318
 20
1416.5341080000001
 30
0.0
  0
INSERT
  8
LY_3
  6
BYBLOCK
  5
2D1
  2
MS_5
 10
642.543318
 20
1456.5341080000001
 30
0.0
  0
INSERT
  8
LY_3
  6
BYBLOCK
  5
2D2
  2
MS_6
 10
642.543318
 20
1496.5341080000001
 30
0.0
  0
INSERT
  8
LY_3
  6
BYBLOCK
  5
2D3
  2
MS_5
 10
442.543318
 20
1376.5341080000001
 30
0.0
  0
INSERT
  8
LY_3
  6
BYBLOCK
  5
2D4
  2
MS_5
 10
442.543318
 20
1416.5341080000001
 30
0.0
  0
INSERT
  8
LY_3
  6
BYBLOCK
  5
2D5
  2
MS_6
 10
442.543318
 20
1456.5341080000001
 30
0.0
  0
INSERT
  8
LY_3
  6
BYBLOCK
  5
2D6
  2
MS_5
 10
242.543318
 20
1376.5341080000001
 30
0.0
  0
CIRCLE
  8
LY_3
  6
CONTINUOUS
 62
               3
  5
2D7
 10
242.543318
 20
691.33410700000002
 30
0.0
 40
35.000000999999997
  0
CIRCLE
  8
LY_3
  6
CONTINUOUS
 62
               3
  5
2D8
 10
242.543318
 20
1691.3341069999999
 30
0.0
 40
32.000000999999997
  0
CIRCLE
  8
LY_3
  6
CONTINUOUS
 62
               3
  5
2D9
 10
442.543318
 20
691.33410700000002
 30
0.0
 40
35.000000999999997
  0
CIRCLE
  8
LY_3
  6
CONTINUOUS
 62
               3
  5
2DA
 10
442.543318
 20
1691.3341069999999
 30
0.0
 40
32.000000999999997
  0
CIRCLE
  8
LY_3
  6
CONTINUOUS
 62
               3
  5
2DB
 10
642.543318
 20
691.33410700000002
 30
0.0
 40
35.000000999999997
  0
CIRCLE
  8
LY_3
  6
CONTINUOUS
 62
               3
  5
2DC
 10
642.543318
 20
1691.3341069999999
 30
0.0
 40
32.000000999999997
  0
CIRCLE
  8
LY_3
  6
CONTINUOUS
 62
               3
  5
2DD
 10
842.543318
 20
691.33410700000002
 30
0.0
 40
35.000000999999997
  0
CIRCLE
  8
LY_3
  6
CONTINUOUS
 62
               3
  5
2DE
 10
842.543318
 20
1691.3341069999999
 30
0.0
 40
32.000000999999997
  0
CIRCLE
  8
LY_3
  6
CONTINUOUS
 62
               3
  5
2DF
 10
1042.543318
 20
691.33410700000002
 30
0.0
 40
35.000000999999997
  0
CIRCLE
  8
LY_3
  6
CONTINUOUS
 62
               3
  5
2E0
 10
1042.543318
 20
1691.3341069999999
 30
0.0
 40
32.000000999999997
  0
TEXT
  8
LY_3
  6
CONTINUOUS
 62
             255
  5
2E1
 10
551.64079832227753
 20
808.83410700000002
 30
0.0
 40
30.0
  1
XVC6M 5SK
 41
0.9444962644554952
  7
MX_NOTE_STANDARD
 11
551.64079832227753
 21
823.83410700000002
 31
0.0
 73
               2
  0
TEXT
  8
LY_3
  6
CONTINUOUS
 62
             255
  5
2E2
 10
565.70329832227753
 20
1831.3341069999999
 30
0.0
 40
30.0
  1
XVC6B 5SK
 41
0.9444962644554952
  7
MX_NOTE_STANDARD
 11
565.70329832227753
 21
1846.3341069999999
 31
0.0
 73
               2
  0
ENDSEC
  0
EOF
